0
SECTION
2
HEADER
9
$INSUNITS
70
4
9
$ACADVER
1
AC1014
9
$HANDSEED
5
FFFF
0
ENDSEC
0
SECTION
2
TABLES
0
TABLE
2
VPORT
5
8
100
AcDbSymbolTable
0
ENDTAB
0
TABLE
2
LTYPE
5
5
100
AcDbSymbolTable
0
LTYPE
5
14
100
AcDbSymbolTableRecord
100
AcDbLinetypeTableRecord
2
BYBLOCK
70
0
0
LTYPE
5
15
100
AcDbSymbolTableRecord
100
AcDbLinetypeTableRecord
2
BYLAYER
70
0
0
ENDTAB
0
TABLE
2
LAYER
5
2
100
AcDbSymbolTable
70
2
0
LAYER
5
50
100
AcDbSymbolTableRecord
100
AcDbLayerTableRecord
2
0
70
0
6
CONTINUOUS
0
ENDTAB
0
TABLE
2
STYLE
5
3
100
AcDbSymbolTable
70
1
0
STYLE
5
11
100
AcDbSymbolTableRecord
100
AcDbTextStyleTableRecord
2
STANDARD
70
0
0
ENDTAB
0
TABLE
2
VIEW
5
6
100
AcDbSymbolTable
70
0
0
ENDTAB
0
TABLE
2
UCS
5
7
100
AcDbSymbolTable
70
0
0
ENDTAB
0
TABLE
2
APPID
5
9
100
AcDbSymbolTable
70
2
0
APPID
5
12
100
AcDbSymbolTableRecord
100
AcDbRegAppTableRecord
2
ACAD
70
0
0
ENDTAB
0
TABLE
2
DIMSTYLE
5
A
100
AcDbSymbolTable
70
1
0
ENDTAB
0
TABLE
2
BLOCK_RECORD
5
1
100
AcDbSymbolTable
70
1
0
BLOCK_RECORD
5
1F
100
AcDbSymbolTableRecord
100
AcDbBlockTableRecord
2
*MODEL_SPACE
0
BLOCK_RECORD
5
1B
100
AcDbSymbolTableRecord
100
AcDbBlockTableRecord
2
*PAPER_SPACE
0
ENDTAB
0
ENDSEC
0
SECTION
2
BLOCKS
0
BLOCK
5
20
100
AcDbEntity
100
AcDbBlockBegin
2
*MODEL_SPACE
0
ENDBLK
5
21
100
AcDbEntity
100
AcDbBlockEnd
0
BLOCK
5
1C
100
AcDbEntity
100
AcDbBlockBegin
2
*PAPER_SPACE
0
ENDBLK
5
1D
100
AcDbEntity
100
AcDbBlockEnd
0
ENDSEC
0
SECTION
2
ENTITIES
0
SPLINE
5
100
100
AcDbEntity
8
0
100
AcDbSpline
70
4
71
3
72
8
73
4
74
0
42
0.000000001
43
0.0000000001
44
0.0000000001
40
0
40
0
40
0
40
0
40
1
40
1
40
1
40
1
41
1
41
1
41
1
41
1
10
-89.90372550659167
20
-353.73056945190444
30
0
10
-79.689552456664927
20
-352.36982692871101
30
0
10
-67.162074096679589
20
-344.9698483825685
30
0
10
-55.325808197021331
20
-352.05551820678721
30
0
0
SPLINE
5
101
100
AcDbEntity
8
0
100
AcDbSpline
70
4
71
3
72
8
73
4
74
0
42
0.000000001
43
0.0000000001
44
0.0000000001
40
0
40
0
40
0
40
0
40
1
40
1
40
1
40
1
41
1
41
1
41
1
41
1
10
-55.325808197021331
20
-352.05551820678721
30
0
10
-39.16898043823231
20
-361.72763132019054
30
0
10
-54.806979400634646
20
-382.34505308837902
30
0
10
-66.899218048095577
20
-363.34976719055186
30
0
0
SPLINE
5
102
100
AcDbEntity
8
0
100
AcDbSpline
70
4
71
3
72
8
73
4
74
0
42
0.000000001
43
0.0000000001
44
0.0000000001
40
0
40
0
40
0
40
0
40
1
40
1
40
1
40
1
41
1
41
1
41
1
41
1
10
-66.899218048095577
20
-363.34976719055186
30
0
10
-77.274245233154133
20
-372.87733098754893
30
0
10
-76.907666445922729
20
-389.22723533325205
30
0
10
-55.787419555663931
20
-390.54435493774429
30
0
0
SPLINE
5
103
100
AcDbEntity
8
0
100
AcDbSpline
70
4
71
3
72
8
73
4
74
0
42
0.000000001
43
0.0000000001
44
0.0000000001
40
0
40
0
40
0
40
0
40
1
40
1
40
1
40
1
41
1
41
1
41
1
41
1
10
-55.787419555663931
20
-390.54435493774429
30
0
10
-63.918318603515516
20
-398.57256374206554
30
0
10
-81.100543075561404
20
-400.81157242431652
30
0
10
-105.12726372070297
20
-382.24128732910168
30
0
0
SPLINE
5
104
100
AcDbEntity
8
0
100
AcDbSpline
70
4
71
3
72
8
73
4
74
0
42
0.000000001
43
0.0000000001
44
0.0000000001
40
0
40
0
40
0
40
0
40
1
40
1
40
1
40
1
41
1
41
1
41
1
41
1
10
-105.12726372070297
20
-382.24128732910168
30
0
10
-119.85399970092764
20
-371.36137003173843
30
0
10
-128.79149253845208
20
-359.34420238342295
30
0
10
-134.50142714996326
20
-344.96025478210464
30
0
0
SPLINE
5
105
100
AcDbEntity
8
0
100
AcDbSpline
70
4
71
3
72
8
73
4
74
0
42
0.000000001
43
0.0000000001
44
0.0000000001
40
0
40
0
40
0
40
0
40
1
40
1
40
1
40
1
41
1
41
1
41
1
41
1
10
-134.50142714996326
20
-344.96025478210464
30
0
10
-113.40421780700673
20
-358.70779820556652
30
0
10
-99.365123574828971
20
-356.57337267456063
30
0
10
-89.90372550659167
20
-353.73056945190444
30
0
0
SPLINE
5
106
100
AcDbEntity
8
0
100
AcDbSpline
70
4
71
3
72
8
73
4
74
0
42
0.000000001
43
0.0000000001
44
0.0000000001
40
0
40
0
40
0
40
0
40
1
40
1
40
1
40
1
41
1
41
1
41
1
41
1
10
-182.88361058349602
20
-377.73487634887709
30
0
10
-180.71668296661369
20
-378.17149272155774
30
0
10
-179.01534611663809
20
-378.75825109252946
30
0
10
-177.08303150482166
20
-378.44351216430675
30
0
0
SPLINE
5
107
100
AcDbEntity
8
0
100
AcDbSpline
70
4
71
3
72
8
73
4
74
0
42
0.000000001
43
0.0000000001
44
0.0000000001
40
0
40
0
40
0
40
0
40
1
40
1
40
1
40
1
41
1
41
1
41
1
41
1
10
-177.08303150482166
20
-378.44351216430675
30
0
10
-175.56773736877432
20
-368.60082225341807
30
0
10
-170.15451604156485
20
-365.82302320251478
30
0
10
-165.18776281127919
20
-367.15248972778335
30
0
0
SPLINE
5
108
100
AcDbEntity
8
0
100
AcDbSpline
70
4
71
3
72
8
73
4
74
0
42
0.000000001
43
0.0000000001
44
0.0000000001
40
0
40
0
40
0
40
0
40
1
40
1
40
1
40
1
41
1
41
1
41
1
41
1
10
-165.18776281127919
20
-367.15248972778335
30
0
10
-154.8219635513305
20
-370.27419569396983
30
0
10
-154.54402877197253
20
-382.61982585144051
30
0
10
-155.47161808319083
20
-393.64270070190446
30
0
0
SPLINE
5
109
100
AcDbEntity
8
0
100
AcDbSpline
70
4
71
3
72
8
73
4
74
0
42
0.000000001
43
0.0000000001
44
0.0000000001
40
0
40
0
40
0
40
0
40
1
40
1
40
1
40
1
41
1
41
1
41
1
41
1
10
-155.47161808319083
20
-393.64270070190446
30
0
10
-156.40501517944324
20
-401.69964728698744
30
0
10
-160.22660226287832
20
-410.49745213928236
30
0
10
-170.41412403259267
20
-417.32082518310563
30
0
0
SPLINE
5
110
100
AcDbEntity
8
0
100
AcDbSpline
70
4
71
3
72
8
73
4
74
0
42
0.000000001
43
0.0000000001
44
0.0000000001
40
0
40
0
40
0
40
0
40
1
40
1
40
1
40
1
41
1
41
1
41
1
41
1
10
-170.41412403259267
20
-417.32082518310563
30
0
10
-188.64418047637929
20
-425.84321196289073
30
0
10
-208.46436544189444
20
-413.87646449279799
30
0
10
-213.13868594055165
20
-390.97972371215832
30
0
0
SPLINE
5
111
100
AcDbEntity
8
0
100
AcDbSpline
70
4
71
3
72
8
73
4
74
0
42
0.000000001
43
0.0000000001
44
0.0000000001
40
0
40
0
40
0
40
0
40
1
40
1
40
1
40
1
41
1
41
1
41
1
41
1
10
-213.13868594055165
20
-390.97972371215832
30
0
10
-205.79691430664053
20
-390.76315786132824
30
0
10
-203.22712000122061
20
-398.1843025573732
30
0
10
-191.33834742279043
20
-393.4374492767335
30
0
0
SPLINE
5
112
100
AcDbEntity
8
0
100
AcDbSpline
70
4
71
3
72
8
73
4
74
0
42
0.000000001
43
0.0000000001
44
0.0000000001
40
0
40
0
40
0
40
0
40
1
40
1
40
1
40
1
41
1
41
1
41
1
41
1
10
-191.33834742279043
20
-393.4374492767335
30
0
10
-187.06736683959949
20
-391.73215452880873
30
0
10
-184.47337342987052
20
-385.1338223999025
30
0
10
-182.88361058349602
20
-377.73487634887709
30
0
0
SPLINE
5
113
100
AcDbEntity
8
0
100
AcDbSpline
70
4
71
3
72
8
73
4
74
0
42
0.000000001
43
0.0000000001
44
0.0000000001
40
-1
40
-1
40
-1
40
-1
40
0
40
0
40
0
40
0
41
1
41
1
41
1
41
1
10
-107.00502817382798
20
-158.18423270721442
30
0
10
-103.60816225891099
20
-182.34530677948004
30
0
10
-83.113134182739117
20
-186.72635564422615
30
0
10
-65.822540744018454
20
-186.36242262573248
30
0
0
SPLINE
5
114
100
AcDbEntity
8
0
100
AcDbSpline
70
4
71
3
72
8
73
4
74
0
42
0.000000001
43
0.0000000001
44
0.0000000001
40
-1
40
-1
40
-1
40
-1
40
0
40
0
40
0
40
0
41
1
41
1
41
1
41
1
10
-65.822540744018454
20
-186.36242262573248
30
0
10
-85.349776730346534
20
-206.92243336334235
30
0
10
-110.39225746765126
20
-212.85611827087408
30
0
10
-128.37120249481188
20
-206.03190632476813
30
0
0
SPLINE
5
115
100
AcDbEntity
8
0
100
AcDbSpline
70
4
71
3
72
8
73
4
74
0
42
0.000000001
43
0.0000000001
44
0.0000000001
40
-1
40
-1
40
-1
40
-1
40
0
40
0
40
0
40
0
41
1
41
1
41
1
41
1
10
-128.37120249481188
20
-206.03190632476813
30
0
10
-143.33354095458972
20
-200.62571887054449
30
0
10
-143.26031984252921
20
-190.40614673156745
30
0
10
-140.48247777099596
20
-185.44894408111577
30
0
0
SPLINE
5
116
100
AcDbEntity
8
0
100
AcDbSpline
70
4
71
3
72
8
73
4
74
0
42
0.000000001
43
0.0000000001
44
0.0000000001
40
-1
40
-1
40
-1
40
-1
40
0
40
0
40
0
40
0
41
1
41
1
41
1
41
1
10
-140.48247777099596
20
-185.44894408111577
30
0
10
-136.36753301239003
20
-180.15351323852545
30
0
10
-127.87786342163074
20
-180.13527249145514
30
0
10
-121.73249550476065
20
-187.63794128112801
30
0
0
SPLINE
5
117
100
AcDbEntity
8
0
100
AcDbSpline
70
4
71
3
72
8
73
4
74
0
42
0.000000001
43
0.0000000001
44
0.0000000001
40
-1
40
-1
40
-1
40
-1
40
0
40
0
40
0
40
0
41
1
41
1
41
1
41
1
10
-121.73249550476065
20
-187.63794128112801
30
0
10
-118.66503855285636
20
-182.24448793334969
30
0
10
-118.20983726806631
20
-176.28146295623787
30
0
10
-125.44289577026355
20
-170.24895966186531
30
0
0
SPLINE
5
118
100
AcDbEntity
8
0
100
AcDbSpline
70
4
71
3
72
8
73
4
74
0
42
0.000000001
43
0.0000000001
44
0.0000000001
40
-1
40
-1
40
-1
40
-1
40
0
40
0
40
0
40
0
41
1
41
1
41
1
41
1
10
-125.44289577026355
20
-170.24895966186531
30
0
10
-116.42960058288566
20
-171.59675297546391
30
0
10
-109.94325115356432
20
-163.47985714263922
30
0
10
-107.00502817382798
20
-158.18423270721442
30
0
0
SPLINE
5
119
100
AcDbEntity
8
0
100
AcDbSpline
70
4
71
3
72
8
73
4
74
0
42
0.000000001
43
0.0000000001
44
0.0000000001
40
0
40
0
40
0
40
0
40
1
40
1
40
1
40
1
41
1
41
1
41
1
41
1
10
-116.63622866821278
20
-299.67488988037121
30
0
10
-113.85838659667954
20
-305.66813684997567
30
0
10
-112.69962593078603
20
-314.35869127197282
30
0
10
-133.13930796661367
20
-317.17340202331559
30
0
0
SPLINE
5
120
100
AcDbEntity
8
0
100
AcDbSpline
70
4
71
3
72
8
73
4
74
0
42
0.000000001
43
0.0000000001
44
0.0000000001
40
0
40
0
40
0
40
0
40
1
40
1
40
1
40
1
41
1
41
1
41
1
41
1
10
-133.13930796661367
20
-317.17340202331559
30
0
10
-153.61140604705804
20
-314.35172192993173
30
0
10
-158.16565596771227
20
-293.01254305419934
30
0
10
-182.746675918579
20
-292.20764857940685
30
0
0
SPLINE
5
121
100
AcDbEntity
8
0
100
AcDbSpline
70
4
71
3
72
8
73
4
74
0
42
0.000000001
43
0.0000000001
44
0.0000000001
40
0
40
0
40
0
40
0
40
1
40
1
40
1
40
1
41
1
41
1
41
1
41
1
10
-182.746675918579
20
-292.20764857940685
30
0
10
-194.17166459655755
20
-291.83354118194586
30
0
10
-211.53356472930898
20
-302.5365146286012
30
0
10
-219.68474800415032
20
-308.67534340972907
30
0
0
SPLINE
5
122
100
AcDbEntity
8
0
100
AcDbSpline
70
4
71
3
72
8
73
4
74
0
42
0.000000001
43
0.0000000001
44
0.0000000001
40
0
40
0
40
0
40
0
40
1
40
1
40
1
40
1
41
1
41
1
41
1
41
1
10
-219.68474800415032
20
-308.67534340972907
30
0
10
-220.32829360656731
20
-298.63867347869882
30
0
10
-216.45970648498525
20
-297.61811658630381
30
0
10
-216.03509286804189
20
-288.87613100128186
30
0
0
SPLINE
5
123
100
AcDbEntity
8
0
100
AcDbSpline
70
4
71
3
72
8
73
4
74
0
42
0.000000001
43
0.0000000001
44
0.0000000001
40
0
40
0
40
0
40
0
40
1
40
1
40
1
40
1
41
1
41
1
41
1
41
1
10
-216.03509286804189
20
-288.87613100128186
30
0
10
-211.93718427886952
20
-287.93070963897713
30
0
10
-197.70593840332023
20
-289.48807795104989
30
0
10
-210.02035709381093
20
-272.0816944869996
30
0
0
SPLINE
5
124
100
AcDbEntity
8
0
100
AcDbSpline
70
4
71
3
72
8
73
4
74
0
42
0.000000001
43
0.0000000001
44
0.0000000001
40
0
40
0
40
0
40
0
40
1
40
1
40
1
40
1
41
1
41
1
41
1
41
1
10
-210.02035709381093
20
-272.0816944869996
30
0
10
-215.09825412139884
20
-266.02060398406991
30
0
10
-217.15569423522939
20
-260.11718408966073
30
0
10
-217.56383095092764
20
-255.7493640686036
30
0
0
SPLINE
5
125
100
AcDbEntity
8
0
100
AcDbSpline
70
4
71
3
72
8
73
4
74
0
42
0.000000001
43
0.0000000001
44
0.0000000001
40
0
40
0
40
0
40
0
40
1
40
1
40
1
40
1
41
1
41
1
41
1
41
1
10
-217.56383095092764
20
-255.7493640686036
30
0
10
-218.40867008056631
20
-247.5598924331666
30
0
10
-213.70987084350577
20
-247.37845292663582
30
0
10
-210.01459232940664
20
-252.51548180999762
30
0
0
SPLINE
5
126
100
AcDbEntity
8
0
100
AcDbSpline
70
4
71
3
72
8
73
4
74
0
42
0.000000001
43
0.0000000001
44
0.0000000001
40
0
40
0
40
0
40
0
40
1
40
1
40
1
40
1
41
1
41
1
41
1
41
1
10
-210.01459232940664
20
-252.51548180999762
30
0
10
-202.12383443756093
20
-263.72644285430914
30
0
10
-200.24363931884756
20
-295.91372527160649
30
0
10
-183.78635548095696
20
-280.59050825805673
30
0
0
SPLINE
5
127
100
AcDbEntity
8
0
100
AcDbSpline
70
4
71
3
72
8
73
4
74
0
42
0.000000001
43
0.0000000001
44
0.0000000001
40
0
40
0
40
0
40
0
40
1
40
1
40
1
40
1
41
1
41
1
41
1
41
1
10
-183.78635548095696
20
-280.59050825805673
30
0
10
-179.06208803100577
20
-275.7292846328736
30
0
10
-173.55727578277578
20
-291.43964429473891
30
0
10
-164.82032361145008
20
-285.49234335784922
30
0
0
SPLINE
5
128
100
AcDbEntity
8
0
100
AcDbSpline
70
4
71
3
72
8
73
4
74
0
42
0.000000001
43
0.0000000001
44
0.0000000001
40
0
40
0
40
0
40
0
40
1
40
1
40
1
40
1
41
1
41
1
41
1
41
1
10
-164.82032361145008
20
-285.49234335784922
30
0
10
-163.82983813934317
20
-285.17532433624274
30
0
10
-166.18612105865466
20
-276.74941131896981
30
0
10
-173.91131405639638
20
-268.2974923309327
30
0
0
SPLINE
5
129
100
AcDbEntity
8
0
100
AcDbSpline
70
4
71
3
72
8
73
4
74
0
42
0.000000001
43
0.0000000001
44
0.0000000001
40
0
40
0
40
0
40
0
40
1
40
1
40
1
40
1
41
1
41
1
41
1
41
1
10
-173.91131405639638
20
-268.2974923309327
30
0
10
-149.35462227172843
20
-252.06860501708991
30
0
10
-186.74755147705068
20
-249.654459350586
30
0
10
-197.3863381439208
20
-245.44949392395029
30
0
0
SPLINE
5
130
100
AcDbEntity
8
0
100
AcDbSpline
70
4
71
3
72
8
73
4
74
0
42
0.000000001
43
0.0000000001
44
0.0000000001
40
0
40
0
40
0
40
0
40
1
40
1
40
1
40
1
41
1
41
1
41
1
41
1
10
-197.3863381439208
20
-245.44949392395029
30
0
10
-207.82856355285634
20
-241.10236682586677
30
0
10
-202.32411697998037
20
-231.86947283325202
30
0
10
-193.45741458892815
20
-235.38918415679942
30
0
0
SPLINE
5
131
100
AcDbEntity
8
0
100
AcDbSpline
70
4
71
3
72
8
73
4
74
0
42
0.000000001
43
0.0000000001
44
0.0000000001
40
0
40
0
40
0
40
0
40
1
40
1
40
1
40
1
41
1
41
1
41
1
41
1
10
-193.45741458892815
20
-235.38918415679942
30
0
10
-188.61531363372794
20
-237.19103870849619
30
0
10
-182.94134426879873
20
-241.12949133300788
30
0
10
-174.32730203704824
20
-244.24108745117195
30
0
0
SPLINE
5
132
100
AcDbEntity
8
0
100
AcDbSpline
70
4
71
3
72
8
73
4
74
0
42
0.000000001
43
0.0000000001
44
0.0000000001
40
0
40
0
40
0
40
0
40
1
40
1
40
1
40
1
41
1
41
1
41
1
41
1
10
-174.32730203704824
20
-244.24108745117195
30
0
10
-161.42560872802727
20
-251.66253329162606
30
0
10
-161.49566782379139
20
-244.27062111358651
30
0
10
-162.02847832489005
20
-239.49866529541023
30
0
0
SPLINE
5
133
100
AcDbEntity
8
0
100
AcDbSpline
70
4
71
3
72
8
73
4
74
0
42
0.000000001
43
0.0000000001
44
0.0000000001
40
0
40
0
40
0
40
0
40
1
40
1
40
1
40
1
41
1
41
1
41
1
41
1
10
-162.02847832489005
20
-239.49866529541023
30
0
10
-157.02324314117419
20
-227.90032498931893
30
0
10
-150.3527869262694
20
-230.05531438140878
30
0
10
-144.09771640319809
20
-233.26723460845955
30
0
0
SPLINE
5
134
100
AcDbEntity
8
0
100
AcDbSpline
70
4
71
3
72
8
73
4
74
0
42
0.000000001
43
0.0000000001
44
0.0000000001
40
0
40
0
40
0
40
0
40
1
40
1
40
1
40
1
41
1
41
1
41
1
41
1
10
-144.09771640319809
20
-233.26723460845955
30
0
10
-169.29246865997303
20
-251.82605470581063
30
0
10
-159.3691150680541
20
-282.3195719039918
30
0
10
-143.98179731597892
20
-285.02954893188485
30
0
0
SPLINE
5
135
100
AcDbEntity
8
0
100
AcDbSpline
70
4
71
3
72
8
73
4
74
0
42
0.000000001
43
0.0000000001
44
0.0000000001
40
0
40
0
40
0
40
0
40
1
40
1
40
1
40
1
41
1
41
1
41
1
41
1
10
-143.98179731597892
20
-285.02954893188485
30
0
10
-152.07731189575185
20
-298.23537658386243
30
0
10
-140.21615856170641
20
-310.09652991790779
30
0
10
-134.66324924926744
20
-300.9934721862794
30
0
0
SPLINE
5
136
100
AcDbEntity
8
0
100
AcDbSpline
70
4
71
3
72
8
73
4
74
0
42
0.000000001
43
0.0000000001
44
0.0000000001
40
0
40
0
40
0
40
0
40
1
40
1
40
1
40
1
41
1
41
1
41
1
41
1
10
-134.66324924926744
20
-300.9934721862794
30
0
10
-130.46176849365224
20
-296.56208918457037
30
0
10
-120.75115191650376
20
-294.37945903778086
30
0
10
-116.63622866821278
20
-299.67488988037121
30
0
0
SPLINE
5
137
100
AcDbEntity
8
0
100
AcDbSpline
70
4
71
3
72
8
73
4
74
0
42
0.000000001
43
0.0000000001
44
0.0000000001
40
0
40
0
40
0
40
0
40
1
40
1
40
1
40
1
41
1
41
1
41
1
41
1
10
-216.24299006195059
20
-116.70360155715947
30
0
10
-228.30231792755117
20
-106.13112043609624
30
0
10
-214.4108274765014
20
-69.253169680786172
30
0
10
-201.05365324859608
20
-70.215024923706082
30
0
0
SPLINE
5
138
100
AcDbEntity
8
0
100
AcDbSpline
70
4
71
3
72
8
73
4
74
0
42
0.000000001
43
0.0000000001
44
0.0000000001
40
0
40
0
40
0
40
0
40
1
40
1
40
1
40
1
41
1
41
1
41
1
41
1
10
-201.05365324859608
20
-70.215024923706082
30
0
10
-195.25664488220204
20
-71.750366673278847
30
0
10
-193.70635346374502
20
-75.423640135192898
30
0
10
-195.34610628204337
20
-82.737469869995152
30
0
0
SPLINE
5
139
100
AcDbEntity
8
0
100
AcDbSpline
70
4
71
3
72
8
73
4
74
0
42
0.000000001
43
0.0000000001
44
0.0000000001
40
0
40
0
40
0
40
0
40
1
40
1
40
1
40
1
41
1
41
1
41
1
41
1
10
-195.34610628204337
20
-82.737469869995152
30
0
10
-192.18251973266592
20
-83.486566587829628
30
0
10
-190.55631841278068
20
-84.048093359375031
30
0
10
-186.86689070434562
20
-82.202863257598921
30
0
0
SPLINE
5
140
100
AcDbEntity
8
0
100
AcDbSpline
70
4
71
3
72
8
73
4
74
0
42
0.000000001
43
0.0000000001
44
0.0000000001
40
0
40
0
40
0
40
0
40
1
40
1
40
1
40
1
41
1
41
1
41
1
41
1
10
-186.86689070434562
20
-82.202863257598921
30
0
10
-188.11416631622305
20
-89.518048142242463
30
0
10
-186.7559835205077
20
-95.423629823303258
30
0
10
-180.49131939697253
20
-99.773564017486621
30
0
0
SPLINE
5
141
100
AcDbEntity
8
0
100
AcDbSpline
70
4
71
3
72
8
73
4
74
0
42
0.000000001
43
0.0000000001
44
0.0000000001
40
0
40
0
40
0
40
0
40
1
40
1
40
1
40
1
41
1
41
1
41
1
41
1
10
-180.49131939697253
20
-99.773564017486621
30
0
10
-196.32880502014149
20
-96.114896059417759
30
0
10
-206.32370191955556
20
-106.55664824142461
30
0
10
-210.02382025451652
20
-115.3560448570252
30
0
0
SPLINE
5
142
100
AcDbEntity
8
0
100
AcDbSpline
70
4
71
3
72
8
73
4
74
0
42
0.000000001
43
0.0000000001
44
0.0000000001
40
0
40
0
40
0
40
0
40
1
40
1
40
1
40
1
41
1
41
1
41
1
41
1
10
-210.02382025451652
20
-115.3560448570252
30
0
10
-211.27957093048084
20
-118.17025011596684
30
0
10
-214.88504387969959
20
-117.92406456146244
30
0
10
-216.24299006195059
20
-116.70360155715947
30
0
0
SPLINE
5
143
100
AcDbEntity
8
0
100
AcDbSpline
70
4
71
3
72
8
73
4
74
0
42
0.000000001
43
0.0000000001
44
0.0000000001
40
0
40
0
40
0
40
0
40
1
40
1
40
1
40
1
41
1
41
1
41
1
41
1
10
-40.024961911010593
20
-405.86107583618178
30
0
10
-36.558918823242053
20
-407.32498182983414
30
0
10
-34.339742651367047
20
-412.90510169067397
30
0
10
-36.138822372436366
20
-416.93721022644058
30
0
0
SPLINE
5
144
100
AcDbEntity
8
0
100
AcDbSpline
70
4
71
3
72
8
73
4
74
0
42
0.000000001
43
0.0000000001
44
0.0000000001
40
0
40
0
40
0
40
0
40
1
40
1
40
1
40
1
41
1
41
1
41
1
41
1
10
-36.138822372436366
20
-416.93721022644058
30
0
10
-38.523154742431487
20
-422.28110380859391
30
0
10
-46.740224111938318
20
-425.28286825866712
30
0
10
-56.460133145141498
20
-416.07335597839369
30
0
0
SPLINE
5
145
100
AcDbEntity
8
0
100
AcDbSpline
70
4
71
3
72
8
73
4
74
0
42
0.000000001
43
0.0000000001
44
0.0000000001
40
0
40
0
40
0
40
0
40
1
40
1
40
1
40
1
41
1
41
1
41
1
41
1
10
-56.460133145141498
20
-416.07335597839369
30
0
10
-59.433288876342658
20
-420.86791913757338
30
0
10
-58.906845428466639
20
-432.60988381652845
30
0
10
-48.610201831054525
20
-437.18891361999522
30
0
0
LINE
5
146
100
AcDbEntity
8
0
100
AcDbLine
10
-48.610201831054525
20
-437.18891361999533
30
0
11
-106.54969782714829
21
-437.18891361999522
31
0
0
SPLINE
5
147
100
AcDbEntity
8
0
100
AcDbSpline
70
4
71
3
72
8
73
4
74
0
42
0.000000001
43
0.0000000001
44
0.0000000001
40
0
40
0
40
0
40
0
40
1
40
1
40
1
40
1
41
1
41
1
41
1
41
1
10
-106.54969782714829
20
-437.18891361999522
30
0
10
-93.047242932128782
20
-433.36631555175791
30
0
10
-89.86406048583973
20
-417.15115181884778
30
0
10
-90.849964260864127
20
-406.72828569335945
30
0
0
SPLINE
5
148
100
AcDbEntity
8
0
100
AcDbSpline
70
4
71
3
72
8
73
4
74
0
42
0.000000001
43
0.0000000001
44
0.0000000001
40
0
40
0
40
0
40
0
40
1
40
1
40
1
40
1
41
1
41
1
41
1
41
1
10
-90.849964260864127
20
-406.72828569335945
30
0
10
-80.28091403503403
20
-413.55109946899427
30
0
10
-73.543668292236219
20
-413.453184515381
30
0
10
-59.44434517822252
20
-408.8237775543214
30
0
0
SPLINE
5
149
100
AcDbEntity
8
0
100
AcDbSpline
70
4
71
3
72
8
73
4
74
0
42
0.000000001
43
0.0000000001
44
0.0000000001
40
0
40
0
40
0
40
0
40
1
40
1
40
1
40
1
41
1
41
1
41
1
41
1
10
-59.44434517822252
20
-408.8237775543214
30
0
10
-52.96419071960436
20
-406.30586612854017
30
0
10
-45.726442968749836
20
-402.99052430725112
30
0
10
-40.024961911010593
20
-405.86107583618178
30
0
0
SPLINE
5
150
100
AcDbEntity
8
0
100
AcDbSpline
70
4
71
3
72
8
73
4
74
0
42
0.000000001
43
0.0000000001
44
0.0000000001
40
0
40
0
40
0
40
0
40
1
40
1
40
1
40
1
41
1
41
1
41
1
41
1
10
-145.0610128372191
20
-361.88512984619149
30
0
10
-137.35087705993641
20
-369.89294687194837
30
0
10
-130.22739210205066
20
-376.51063828430188
30
0
10
-118.07501061401354
20
-387.37042192688
30
0
0
SPLINE
5
151
100
AcDbEntity
8
0
100
AcDbSpline
70
4
71
3
72
8
73
4
74
0
42
0.000000001
43
0.0000000001
44
0.0000000001
40
0
40
0
40
0
40
0
40
1
40
1
40
1
40
1
41
1
41
1
41
1
41
1
10
-118.07501061401354
20
-387.37042192688
30
0
10
-130.22564976654039
20
-385.65832991943375
30
0
10
-142.19590341796868
20
-389.60882832031257
30
0
10
-145.97264149475086
20
-394.83475933532731
30
0
0
SPLINE
5
152
100
AcDbEntity
8
0
100
AcDbSpline
70
4
71
3
72
8
73
4
74
0
42
0.000000001
43
0.0000000001
44
0.0000000001
40
0
40
0
40
0
40
0
40
1
40
1
40
1
40
1
41
1
41
1
41
1
41
1
10
-145.97264149475086
20
-394.83475933532731
30
0
10
-144.99209378814683
20
-381.16787959289559
30
0
10
-144.53308517761224
20
-369.27091158447274
30
0
10
-145.0610128372191
20
-361.88512984619149
30
0
0
SPLINE
5
153
100
AcDbEntity
8
0
100
AcDbSpline
70
4
71
3
72
8
73
4
74
0
42
0.000000001
43
0.0000000001
44
0.0000000001
40
0
40
0
40
0
40
0
40
1
40
1
40
1
40
1
41
1
41
1
41
1
41
1
10
-304.93950461425777
20
-88.42425938262943
30
0
10
-312.64964039154046
20
-80.416442356872594
30
0
10
-319.77312534942621
20
-73.798750944519071
30
0
10
-331.92549608230587
20
-62.938967301940956
30
0
0
SPLINE
5
154
100
AcDbEntity
8
0
100
AcDbSpline
70
4
71
3
72
8
73
4
74
0
42
0.000000001
43
0.0000000001
44
0.0000000001
40
0
40
0
40
0
40
0
40
1
40
1
40
1
40
1
41
1
41
1
41
1
41
1
10
-331.92549608230587
20
-62.938967301940956
30
0
10
-319.77484617462153
20
-64.651037799072299
30
0
10
-307.80461403350824
20
-60.700550153350861
30
0
10
-304.02787595672601
20
-55.474619138336209
30
0
0
SPLINE
5
155
100
AcDbEntity
8
0
100
AcDbSpline
70
4
71
3
72
8
73
4
74
0
42
0.000000001
43
0.0000000001
44
0.0000000001
40
0
40
0
40
0
40
0
40
1
40
1
40
1
40
1
41
1
41
1
41
1
41
1
10
-304.02787595672601
20
-55.474619138336209
30
0
10
-305.00842366333001
20
-69.14148812561038
30
0
10
-305.46743227386469
20
-81.03845613403324
30
0
10
-304.93950461425777
20
-88.42425938262943
30
0
0
SPLINE
5
156
100
AcDbEntity
8
0
100
AcDbSpline
70
4
71
3
72
8
73
4
74
0
42
0.000000001
43
0.0000000001
44
0.0000000001
40
-1
40
-1
40
-1
40
-1
40
0
40
0
40
0
40
0
41
1
41
1
41
1
41
1
10
-269.50917654418936
20
-99.773564017486621
30
0
10
-263.24451242065425
20
-95.423629823303258
30
0
10
-261.88632962493887
20
-89.518048142242463
30
0
10
-263.13360523681632
20
-82.202863257598921
30
0
0
SPLINE
5
157
100
AcDbEntity
8
0
100
AcDbSpline
70
4
71
3
72
8
73
4
74
0
42
0.000000001
43
0.0000000001
44
0.0000000001
40
-1
40
-1
40
-1
40
-1
40
0
40
0
40
0
40
0
41
1
41
1
41
1
41
1
10
-263.13360523681632
20
-82.202863257598921
30
0
10
-259.44417752838126
20
-84.048093359375031
30
0
10
-257.81797620849602
20
-83.486566587829628
30
0
10
-254.65438965911858
20
-82.737469869995152
30
0
0
SPLINE
5
158
100
AcDbEntity
8
0
100
AcDbSpline
70
4
71
3
72
8
73
4
74
0
42
0.000000001
43
0.0000000001
44
0.0000000001
40
-1
40
-1
40
-1
40
-1
40
0
40
0
40
0
40
0
41
1
41
1
41
1
41
1
10
-254.65438965911858
20
-82.737469869995152
30
0
10
-256.29414247741693
20
-75.423640135192898
30
0
10
-254.74385105895988
20
-71.750366673278847
30
0
10
-248.94684269256584
20
-70.215024923706082
30
0
0
SPLINE
5
159
100
AcDbEntity
8
0
100
AcDbSpline
70
4
71
3
72
8
73
4
74
0
42
0.000000001
43
0.0000000001
44
0.0000000001
40
-1
40
-1
40
-1
40
-1
40
0
40
0
40
0
40
0
41
1
41
1
41
1
41
1
10
-248.94684269256584
20
-70.215024923706082
30
0
10
-235.58966846466058
20
-69.253169680786172
30
0
10
-221.69817801361074
20
-106.13112043609624
30
0
10
-233.75750587921132
20
-116.70360155715947
30
0
0
SPLINE
5
160
100
AcDbEntity
8
0
100
AcDbSpline
70
4
71
3
72
8
73
4
74
0
42
0.000000001
43
0.0000000001
44
0.0000000001
40
-1
40
-1
40
-1
40
-1
40
0
40
0
40
0
40
0
41
1
41
1
41
1
41
1
10
-233.75750587921132
20
-116.70360155715947
30
0
10
-235.11545206146229
20
-117.92406456146244
30
0
10
-238.72092501068107
20
-118.17025011596684
30
0
10
-239.97667568664542
20
-115.3560448570252
30
0
0
SPLINE
5
161
100
AcDbEntity
8
0
100
AcDbSpline
70
4
71
3
72
8
73
4
74
0
42
0.000000001
43
0.0000000001
44
0.0000000001
40
-1
40
-1
40
-1
40
-1
40
0
40
0
40
0
40
0
41
1
41
1
41
1
41
1
10
-239.97667568664542
20
-115.3560448570252
30
0
10
-243.67679402160636
20
-106.55664824142461
30
0
10
-253.67169092102043
20
-96.114896059417759
30
0
10
-269.50917654418936
20
-99.773564017486621
30
0
0
SPLINE
5
162
100
AcDbEntity
8
0
100
AcDbSpline
70
4
71
3
72
8
73
4
74
0
42
0.000000001
43
0.0000000001
44
0.0000000001
40
-1
40
-1
40
-1
40
-1
40
0
40
0
40
0
40
0
41
1
41
1
41
1
41
1
10
-331.92549608230587
20
-387.37042192688
30
0
10
-319.77312534942621
20
-376.51063828430188
30
0
10
-312.64964039154046
20
-369.89294687194837
30
0
10
-304.93950461425777
20
-361.88512984619149
30
0
0
SPLINE
5
163
100
AcDbEntity
8
0
100
AcDbSpline
70
4
71
3
72
8
73
4
74
0
42
0.000000001
43
0.0000000001
44
0.0000000001
40
-1
40
-1
40
-1
40
-1
40
0
40
0
40
0
40
0
41
1
41
1
41
1
41
1
10
-304.93950461425777
20
-361.88512984619149
30
0
10
-305.46743227386469
20
-369.27091158447274
30
0
10
-305.00842366333001
20
-381.16787959289559
30
0
10
-304.02787595672601
20
-394.83475933532731
30
0
0
SPLINE
5
164
100
AcDbEntity
8
0
100
AcDbSpline
70
4
71
3
72
8
73
4
74
0
42
0.000000001
43
0.0000000001
44
0.0000000001
40
-1
40
-1
40
-1
40
-1
40
0
40
0
40
0
40
0
41
1
41
1
41
1
41
1
10
-304.02787595672601
20
-394.83475933532731
30
0
10
-307.80461403350824
20
-389.60882832031257
30
0
10
-319.77484617462153
20
-385.65832991943375
30
0
10
-331.92549608230587
20
-387.37042192688
30
0
0
SPLINE
5
165
100
AcDbEntity
8
0
100
AcDbSpline
70
4
71
3
72
8
73
4
74
0
42
0.000000001
43
0.0000000001
44
0.0000000001
40
-1
40
-1
40
-1
40
-1
40
0
40
0
40
0
40
0
41
1
41
1
41
1
41
1
10
-279.5863934188842
20
-417.32082518310563
30
0
10
-289.77391518859855
20
-410.49745213928236
30
0
10
-293.59550227203363
20
-401.69964728698744
30
0
10
-294.52889936828603
20
-393.64270070190446
30
0
0
SPLINE
5
166
100
AcDbEntity
8
0
100
AcDbSpline
70
4
71
3
72
8
73
4
74
0
42
0.000000001
43
0.0000000001
44
0.0000000001
40
-1
40
-1
40
-1
40
-1
40
0
40
0
40
0
40
0
41
1
41
1
41
1
41
1
10
-294.52889936828603
20
-393.64270070190446
30
0
10
-295.45648867950433
20
-382.61982585144051
30
0
10
-295.17855390014643
20
-370.27419569396983
30
0
10
-284.81275464019768
20
-367.15248972778335
30
0
0
SPLINE
5
167
100
AcDbEntity
8
0
100
AcDbSpline
70
4
71
3
72
8
73
4
74
0
42
0.000000001
43
0.0000000001
44
0.0000000001
40
-1
40
-1
40
-1
40
-1
40
0
40
0
40
0
40
0
41
1
41
1
41
1
41
1
10
-284.81275464019768
20
-367.15248972778335
30
0
10
-279.84600140991205
20
-365.82302320251478
30
0
10
-274.43278008270255
20
-368.60082225341807
30
0
10
-272.91748594665523
20
-378.44351216430675
30
0
0
SPLINE
5
168
100
AcDbEntity
8
0
100
AcDbSpline
70
4
71
3
72
8
73
4
74
0
42
0.000000001
43
0.0000000001
44
0.0000000001
40
-1
40
-1
40
-1
40
-1
40
0
40
0
40
0
40
0
41
1
41
1
41
1
41
1
10
-272.91748594665523
20
-378.44351216430675
30
0
10
-270.98517133483875
20
-378.75825109252946
30
0
10
-269.28383448486323
20
-378.17149272155774
30
0
10
-267.1169068679809
20
-377.73487634887709
30
0
0
SPLINE
5
169
100
AcDbEntity
8
0
100
AcDbSpline
70
4
71
3
72
8
73
4
74
0
42
0.000000001
43
0.0000000001
44
0.0000000001
40
-1
40
-1
40
-1
40
-1
40
0
40
0
40
0
40
0
41
1
41
1
41
1
41
1
10
-267.1169068679809
20
-377.73487634887709
30
0
10
-265.52714402160638
20
-385.1338223999025
30
0
10
-262.93315061187735
20
-391.73215452880873
30
0
10
-258.66217002868643
20
-393.4374492767335
30
0
0
SPLINE
5
170
100
AcDbEntity
8
0
100
AcDbSpline
70
4
71
3
72
8
73
4
74
0
42
0.000000001
43
0.0000000001
44
0.0000000001
40
-1
40
-1
40
-1
40
-1
40
0
40
0
40
0
40
0
41
1
41
1
41
1
41
1
10
-258.66217002868643
20
-393.4374492767335
30
0
10
-246.77339745025625
20
-398.1843025573732
30
0
10
-244.20360314483634
20
-390.76315786132824
30
0
10
-236.86183151092521
20
-390.97972371215832
30
0
0
SPLINE
5
171
100
AcDbEntity
8
0
100
AcDbSpline
70
4
71
3
72
8
73
4
74
0
42
0.000000001
43
0.0000000001
44
0.0000000001
40
-1
40
-1
40
-1
40
-1
40
0
40
0
40
0
40
0
41
1
41
1
41
1
41
1
10
-236.86183151092521
20
-390.97972371215832
30
0
10
-241.53615200958242
20
-413.87646449279799
30
0
10
-261.35633697509758
20
-425.84321196289073
30
0
10
-279.5863934188842
20
-417.32082518310563
30
0
0
SPLINE
5
172
100
AcDbEntity
8
0
100
AcDbSpline
70
4
71
3
72
8
73
4
74
0
42
0.000000001
43
0.0000000001
44
0.0000000001
40
-1
40
-1
40
-1
40
-1
40
0
40
0
40
0
40
0
41
1
41
1
41
1
41
1
10
-344.87324297561645
20
-382.24128732910168
30
0
10
-368.89999588623039
20
-400.81157242431652
30
0
10
-386.08220960311883
20
-398.57256374206554
30
0
10
-394.21310865097041
20
-390.54435493774429
30
0
0
SPLINE
5
173
100
AcDbEntity
8
0
100
AcDbSpline
70
4
71
3
72
8
73
4
74
0
42
0.000000001
43
0.0000000001
44
0.0000000001
40
-1
40
-1
40
-1
40
-1
40
0
40
0
40
0
40
0
41
1
41
1
41
1
41
1
10
-394.21310865097041
20
-390.54435493774429
30
0
10
-373.09287251586909
20
-389.22723533325205
30
0
10
-372.72629372863764
20
-372.87733098754893
30
0
10
-383.10132091369621
20
-363.34976719055186
30
0
0
SPLINE
5
174
100
AcDbEntity
8
0
100
AcDbSpline
70
4
71
3
72
8
73
4
74
0
42
0.000000001
43
0.0000000001
44
0.0000000001
40
-1
40
-1
40
-1
40
-1
40
0
40
0
40
0
40
0
41
1
41
1
41
1
41
1
10
-383.10132091369621
20
-363.34976719055186
30
0
10
-395.19353805084222
20
-382.34505308837902
30
0
10
-410.83153163566584
20
-361.72763132019054
30
0
10
-394.674720009613
20
-352.05551820678721
30
0
0
SPLINE
5
175
100
AcDbEntity
8
0
100
AcDbSpline
70
4
71
3
72
8
73
4
74
0
42
0.000000001
43
0.0000000001
44
0.0000000001
40
-1
40
-1
40
-1
40
-1
40
0
40
0
40
0
40
0
41
1
41
1
41
1
41
1
10
-394.674720009613
20
-352.05551820678721
30
0
10
-382.83843259963987
20
-344.9698483825685
30
0
10
-370.31096499481191
20
-352.36982692871101
30
0
10
-360.09679194488518
20
-353.73056945190444
30
0
0
SPLINE
5
176
100
AcDbEntity
8
0
100
AcDbSpline
70
4
71
3
72
8
73
4
74
0
42
0.000000001
43
0.0000000001
44
0.0000000001
40
-1
40
-1
40
-1
40
-1
40
0
40
0
40
0
40
0
41
1
41
1
41
1
41
1
10
-360.09679194488518
20
-353.73056945190444
30
0
10
-350.63538312149041
20
-356.57337267456063
30
0
10
-336.59629964447015
20
-358.70779820556652
30
0
10
-315.49907954635614
20
-344.96025478210464
30
0
0
SPLINE
5
177
100
AcDbEntity
8
0
100
AcDbSpline
70
4
71
3
72
8
73
4
74
0
42
0.000000001
43
0.0000000001
44
0.0000000001
40
-1
40
-1
40
-1
40
-1
40
0
40
0
40
0
40
0
41
1
41
1
41
1
41
1
10
-315.49907954635614
20
-344.96025478210464
30
0
10
-321.20901415786733
20
-359.34420238342295
30
0
10
-330.14650699539175
20
-371.36137003173843
30
0
10
-344.87324297561645
20
-382.24128732910168
30
0
0
SPLINE
5
178
100
AcDbEntity
8
0
100
AcDbSpline
70
4
71
3
72
8
73
4
74
0
42
0.000000001
43
0.0000000001
44
0.0000000001
40
0
40
0
40
0
40
0
40
1
40
1
40
1
40
1
41
1
41
1
41
1
41
1
10
-62.013709277343594
20
-301.92590131835948
30
0
10
-94.945915411376802
20
-307.08900070343026
30
0
10
-90.003318264770371
20
-279.4635613479615
30
0
10
-61.092938735961795
20
-280.23446952514661
30
0
0
SPLINE
5
179
100
AcDbEntity
8
0
100
AcDbSpline
70
4
71
3
72
8
73
4
74
0
42
0.000000001
43
0.0000000001
44
0.0000000001
40
0
40
0
40
0
40
0
40
1
40
1
40
1
40
1
41
1
41
1
41
1
41
1
10
-61.092938735961795
20
-280.23446952514661
30
0
10
-47.160148480224464
20
-280.71384840393074
30
0
10
-34.626948376464668
20
-288.28360786590588
30
0
10
-27.740722192382634
20
-305.46604744110118
30
0
0
SPLINE
5
180
100
AcDbEntity
8
0
100
AcDbSpline
70
4
71
3
72
8
73
4
74
0
42
0.000000001
43
0.0000000001
44
0.0000000001
40
0
40
0
40
0
40
0
40
1
40
1
40
1
40
1
41
1
41
1
41
1
41
1
10
-27.740722192382634
20
-305.46604744110118
30
0
10
-20.916488735961778
20
-323.44499246826183
30
0
10
-26.035900671386543
20
-348.691046826172
30
0
10
-32.345478332519377
20
-362.3145617736817
30
0
0
SPLINE
5
181
100
AcDbEntity
8
0
100
AcDbSpline
70
4
71
3
72
8
73
4
74
0
42
0.000000001
43
0.0000000001
44
0.0000000001
40
0
40
0
40
0
40
0
40
1
40
1
40
1
40
1
41
1
41
1
41
1
41
1
10
-32.345478332519377
20
-362.3145617736817
30
0
10
-49.07602921142562
20
-314.89001756134041
30
0
10
-103.47385185241684
20
-352.12060841979991
30
0
10
-127.50057249755848
20
-333.55028030395516
30
0
0
SPLINE
5
182
100
AcDbEntity
8
0
100
AcDbSpline
70
4
71
3
72
8
73
4
74
0
42
0.000000001
43
0.0000000001
44
0.0000000001
40
0
40
0
40
0
40
0
40
1
40
1
40
1
40
1
41
1
41
1
41
1
41
1
10
-127.50057249755848
20
-333.55028030395516
30
0
10
-116.44117313232407
20
-332.43148580322276
30
0
10
-104.19543687744131
20
-322.73244177551277
30
0
10
-104.23910281677237
20
-311.24444938507088
30
0
0
SPLINE
5
183
100
AcDbEntity
8
0
100
AcDbSpline
70
4
71
3
72
8
73
4
74
0
42
0.000000001
43
0.0000000001
44
0.0000000001
40
0
40
0
40
0
40
0
40
1
40
1
40
1
40
1
41
1
41
1
41
1
41
1
10
-104.23910281677237
20
-311.24444938507088
30
0
10
-88.021400866699082
20
-329.49618822631851
30
0
10
-59.970186337280111
20
-322.45014040222179
30
0
10
-62.013709277343594
20
-301.92590131835948
30
0
0
SPLINE
5
184
100
AcDbEntity
8
0
100
AcDbSpline
70
4
71
3
72
8
73
4
74
0
42
0.000000001
43
0.0000000001
44
0.0000000001
40
-1
40
-1
40
-1
40
-1
40
0
40
0
40
0
40
0
41
1
41
1
41
1
41
1
10
-127.50057249755848
20
-116.84876391754156
30
0
10
-103.47385185241684
20
-98.278446556854277
30
0
10
-49.07602921142562
20
-135.50904817047123
30
0
10
-32.345478332519377
20
-88.084503958129915
30
0
0
SPLINE
5
185
100
AcDbEntity
8
0
100
AcDbSpline
70
4
71
3
72
8
73
4
74
0
42
0.000000001
43
0.0000000001
44
0.0000000001
40
-1
40
-1
40
-1
40
-1
40
0
40
0
40
0
40
0
41
1
41
1
41
1
41
1
10
-32.345478332519377
20
-88.084503958129915
30
0
10
-26.035900671386543
20
-101.70799739532475
30
0
10
-20.916488735961778
20
-126.95407326354984
30
0
10
-27.740722192382634
20
-144.93299678039557
30
0
0
SPLINE
5
186
100
AcDbEntity
8
0
100
AcDbSpline
70
4
71
3
72
8
73
4
74
0
42
0.000000001
43
0.0000000001
44
0.0000000001
40
-1
40
-1
40
-1
40
-1
40
0
40
0
40
0
40
0
41
1
41
1
41
1
41
1
10
-27.740722192382634
20
-144.93299678039557
30
0
10
-34.626948376464668
20
-162.11543635559087
30
0
10
-47.160148480224464
20
-169.68517430725103
30
0
10
-61.092938735961795
20
-170.16457469635014
30
0
0
SPLINE
5
187
100
AcDbEntity
8
0
100
AcDbSpline
70
4
71
3
72
8
73
4
74
0
42
0.000000001
43
0.0000000001
44
0.0000000001
40
-1
40
-1
40
-1
40
-1
40
0
40
0
40
0
40
0
41
1
41
1
41
1
41
1
10
-61.092938735961795
20
-170.16457469635014
30
0
10
-90.003318264770371
20
-170.93548287353519
30
0
10
-94.945915411376802
20
-143.31004351806644
30
0
10
-62.013709277343594
20
-148.47314290313727
30
0
0
SPLINE
5
188
100
AcDbEntity
8
0
100
AcDbSpline
70
4
71
3
72
8
73
4
74
0
42
0.000000001
43
0.0000000001
44
0.0000000001
40
-1
40
-1
40
-1
40
-1
40
0
40
0
40
0
40
0
41
1
41
1
41
1
41
1
10
-62.013709277343594
20
-148.47314290313727
30
0
10
-59.970186337280111
20
-127.94890381927495
30
0
10
-88.021400866699082
20
-120.90286675033575
30
0
10
-104.23910281677237
20
-139.15460559158331
30
0
0
SPLINE
5
189
100
AcDbEntity
8
0
100
AcDbSpline
70
4
71
3
72
8
73
4
74
0
42
0.000000001
43
0.0000000001
44
0.0000000001
40
-1
40
-1
40
-1
40
-1
40
0
40
0
40
0
40
0
41
1
41
1
41
1
41
1
10
-104.23910281677237
20
-139.15460559158331
30
0
10
-104.19543687744131
20
-127.666580935669
30
0
10
-116.44117313232407
20
-117.96754766311651
30
0
10
-127.50057249755848
20
-116.84876391754156
30
0
0
LINE
5
190
100
AcDbEntity
8
0
100
AcDbLine
10
-106.54969782714829
20
-13.120448720932023
30
0
11
-48.610201831054525
21
-13.120448720932023
31
0
0
SPLINE
5
191
100
AcDbEntity
8
0
100
AcDbSpline
70
4
71
3
72
8
73
4
74
0
42
0.000000001
43
0.0000000001
44
0.0000000001
40
-1
40
-1
40
-1
40
-1
40
0
40
0
40
0
40
0
41
1
41
1
41
1
41
1
10
-48.610201831054525
20
-13.120448720932023
30
0
10
-58.906845428466639
20
-17.699500034713758
30
0
10
-59.433288876342658
20
-29.441475468826319
30
0
10
-56.460133145141498
20
-34.236017117691063
30
0
0
SPLINE
5
192
100
AcDbEntity
8
0
100
AcDbSpline
70
4
71
3
72
8
73
4
74
0
42
0.000000001
43
0.0000000001
44
0.0000000001
40
-1
40
-1
40
-1
40
-1
40
0
40
0
40
0
40
0
41
1
41
1
41
1
41
1
10
-56.460133145141498
20
-34.236017117691063
30
0
10
-46.740224111938318
20
-25.026504837417622
30
0
10
-38.523154742431487
20
-28.028263909912134
30
0
10
-36.138822372436366
20
-33.372168247222916
30
0
0
SPLINE
5
193
100
AcDbEntity
8
0
100
AcDbSpline
70
4
71
3
72
8
73
4
74
0
42
0.000000001
43
0.0000000001
44
0.0000000001
40
-1
40
-1
40
-1
40
-1
40
0
40
0
40
0
40
0
41
1
41
1
41
1
41
1
10
-36.138822372436366
20
-33.372168247222916
30
0
10
-34.339742651367047
20
-37.404249895095845
30
0
10
-36.558918823242053
20
-42.984375133514433
30
0
10
-40.024961911010593
20
-44.448286504745496
30
0
0
SPLINE
5
194
100
AcDbEntity
8
0
100
AcDbSpline
70
4
71
3
72
8
73
4
74
0
42
0.000000001
43
0.0000000001
44
0.0000000001
40
-1
40
-1
40
-1
40
-1
40
0
40
0
40
0
40
0
41
1
41
1
41
1
41
1
10
-40.024961911010593
20
-44.448286504745496
30
0
10
-45.726442968749836
20
-47.318821900939966
30
0
10
-52.96419071960436
20
-44.003512345123319
30
0
10
-59.44434517822252
20
-41.485584786605862
30
0
0
SPLINE
5
195
100
AcDbEntity
8
0
100
AcDbSpline
70
4
71
3
72
8
73
4
74
0
42
0.000000001
43
0.0000000001
44
0.0000000001
40
-1
40
-1
40
-1
40
-1
40
0
40
0
40
0
40
0
41
1
41
1
41
1
41
1
10
-59.44434517822252
20
-41.485584786605862
30
0
10
-73.543668292236219
20
-36.856204713439958
30
0
10
-80.28091403503403
20
-36.758289759826681
30
0
10
-90.849964260864127
20
-43.581098157882714
30
0
0
SPLINE
5
196
100
AcDbEntity
8
0
100
AcDbSpline
70
4
71
3
72
8
73
4
74
0
42
0.000000001
43
0.0000000001
44
0.0000000001
40
-1
40
-1
40
-1
40
-1
40
0
40
0
40
0
40
0
41
1
41
1
41
1
41
1
10
-90.849964260864127
20
-43.581098157882714
30
0
10
-89.86406048583973
20
-33.158215899658224
30
0
10
-93.047242932128782
20
-16.943057544326798
30
0
10
-106.54969782714829
20
-13.120448720932023
30
0
0
SPLINE
5
197
100
AcDbEntity
8
0
100
AcDbSpline
70
4
71
3
72
8
73
4
74
0
42
0.000000001
43
0.0000000001
44
0.0000000001
40
0
40
0
40
0
40
0
40
1
40
1
40
1
40
1
41
1
41
1
41
1
41
1
10
-256.44256365051262
20
-313.05736023864756
30
0
10
-247.91342263183589
20
-317.8146890426637
30
0
10
-247.58616470031728
20
-328.89209254150398
30
0
10
-256.02365026702876
20
-333.00262768554694
30
0
0
SPLINE
5
198
100
AcDbEntity
8
0
100
AcDbSpline
70
4
71
3
72
8
73
4
74
0
42
0.000000001
43
0.0000000001
44
0.0000000001
40
0
40
0
40
0
40
0
40
1
40
1
40
1
40
1
41
1
41
1
41
1
41
1
10
-256.02365026702876
20
-333.00262768554694
30
0
10
-261.41398461914054
20
-335.53770434265147
30
0
10
-269.09054279479972
20
-333.82608556213393
30
0
10
-273.1424408203124
20
-324.17974180603039
30
0
0
SPLINE
5
199
100
AcDbEntity
8
0
100
AcDbSpline
70
4
71
3
72
8
73
4
74
0
42
0.000000001
43
0.0000000001
44
0.0000000001
40
0
40
0
40
0
40
0
40
1
40
1
40
1
40
1
41
1
41
1
41
1
41
1
10
-273.1424408203124
20
-324.17974180603039
30
0
10
-280.41540095672599
20
-324.8227281402589
30
0
10
-285.42500273437491
20
-332.97281438903815
30
0
10
-279.27995747222894
20
-344.96533121643074
30
0
0
SPLINE
5
200
100
AcDbEntity
8
0
100
AcDbSpline
70
4
71
3
72
8
73
4
74
0
42
0.000000001
43
0.0000000001
44
0.0000000001
40
0
40
0
40
0
40
0
40
1
40
1
40
1
40
1
41
1
41
1
41
1
41
1
10
-279.27995747222894
20
-344.96533121643074
30
0
10
-289.26399166259762
20
-341.34574750061051
30
0
10
-297.09708040008542
20
-346.11411109619155
30
0
10
-302.92970984802241
20
-352.23052612915046
30
0
0
SPLINE
5
201
100
AcDbEntity
8
0
100
AcDbSpline
70
4
71
3
72
8
73
4
74
0
42
0.000000001
43
0.0000000001
44
0.0000000001
40
0
40
0
40
0
40
0
40
1
40
1
40
1
40
1
41
1
41
1
41
1
41
1
10
-302.92970984802241
20
-352.23052612915046
30
0
10
-303.12605600280756
20
-332.68629699401862
30
0
10
-298.74085564727773
20
-329.21526351318369
30
0
10
-292.41678003387443
20
-320.17742505645765
30
0
0
SPLINE
5
202
100
AcDbEntity
8
0
100
AcDbSpline
70
4
71
3
72
8
73
4
74
0
42
0.000000001
43
0.0000000001
44
0.0000000001
40
0
40
0
40
0
40
0
40
1
40
1
40
1
40
1
41
1
41
1
41
1
41
1
10
-292.41678003387443
20
-320.17742505645765
30
0
10
-284.40278954772941
20
-308.31597057800303
30
0
10
-265.96526611633294
20
-305.32326197052015
30
0
10
-256.44256365051262
20
-313.05736023864756
30
0
0
SPLINE
5
203
100
AcDbEntity
8
0
100
AcDbSpline
70
4
71
3
72
8
73
4
74
0
42
0.000000001
43
0.0000000001
44
0.0000000001
40
0
40
0
40
0
40
0
40
1
40
1
40
1
40
1
41
1
41
1
41
1
41
1
10
-328.32782062225334
20
-187.69989098815924
30
0
10
-322.18247421569811
20
-180.19722219848637
30
0
10
-313.69278311462392
20
-180.21546294555668
30
0
10
-309.57782760086053
20
-185.51089378814706
30
0
0
SPLINE
5
204
100
AcDbEntity
8
0
100
AcDbSpline
70
4
71
3
72
8
73
4
74
0
42
0.000000001
43
0.0000000001
44
0.0000000001
40
0
40
0
40
0
40
0
40
1
40
1
40
1
40
1
41
1
41
1
41
1
41
1
10
-309.57782760086053
20
-185.51089378814706
30
0
10
-306.79997477416987
20
-190.46809643859871
30
0
10
-306.72677517242425
20
-200.68766857757572
30
0
10
-321.68910287704466
20
-206.09385603179936
30
0
0
SPLINE
5
205
100
AcDbEntity
8
0
100
AcDbSpline
70
4
71
3
72
8
73
4
74
0
42
0.000000001
43
0.0000000001
44
0.0000000001
40
0
40
0
40
0
40
0
40
1
40
1
40
1
40
1
41
1
41
1
41
1
41
1
10
-321.68910287704466
20
-206.09385603179936
30
0
10
-339.66802639389027
20
-212.91806797790537
30
0
10
-364.71052864151
20
-206.98438307037361
30
0
10
-384.23776462783803
20
-186.42437233276377
30
0
0
SPLINE
5
206
100
AcDbEntity
8
0
100
AcDbSpline
70
4
71
3
72
8
73
4
74
0
42
0.000000001
43
0.0000000001
44
0.0000000001
40
0
40
0
40
0
40
0
40
1
40
1
40
1
40
1
41
1
41
1
41
1
41
1
10
-384.23776462783803
20
-186.42437233276377
30
0
10
-366.9471711891174
20
-186.78830535125738
30
0
10
-346.45212160263054
20
-182.4072564865113
30
0
10
-343.05528795318594
20
-158.24618241424565
30
0
0
SPLINE
5
207
100
AcDbEntity
8
0
100
AcDbSpline
70
4
71
3
72
8
73
4
74
0
42
0.000000001
43
0.0000000001
44
0.0000000001
40
0
40
0
40
0
40
0
40
1
40
1
40
1
40
1
41
1
41
1
41
1
41
1
10
-343.05528795318594
20
-158.24618241424565
30
0
10
-340.1170542182922
20
-163.54180684967048
30
0
10
-333.63070478897089
20
-171.65870268249517
30
0
10
-324.61742035675047
20
-170.31090936889655
30
0
0
SPLINE
5
208
100
AcDbEntity
8
0
100
AcDbSpline
70
4
71
3
72
8
73
4
74
0
42
0.000000001
43
0.0000000001
44
0.0000000001
40
0
40
0
40
0
40
0
40
1
40
1
40
1
40
1
41
1
41
1
41
1
41
1
10
-324.61742035675047
20
-170.31090936889655
30
0
10
-331.85050036926265
20
-176.34341266326911
30
0
10
-331.39528832931512
20
-182.30643764038092
30
0
10
-328.32782062225334
20
-187.69989098815924
30
0
0
SPLINE
5
209
100
AcDbEntity
8
0
100
AcDbSpline
70
4
71
3
72
8
73
4
74
0
42
0.000000001
43
0.0000000001
44
0.0000000001
40
0
40
0
40
0
40
0
40
1
40
1
40
1
40
1
41
1
41
1
41
1
41
1
10
-413.98391668853753
20
-13.120454098510761
30
0
10
-423.96937593727108
20
-13.120454098510761
30
0
10
-449.12248422431946
20
-38.460046060943625
30
0
10
-415.91552145996093
20
-63.210072556304965
30
0
0
SPLINE
5
210
100
AcDbEntity
8
0
100
AcDbSpline
70
4
71
3
72
8
73
4
74
0
42
0.000000001
43
0.0000000001
44
0.0000000001
40
0
40
0
40
0
40
0
40
1
40
1
40
1
40
1
41
1
41
1
41
1
41
1
10
-415.91552145996093
20
-63.210072556304965
30
0
10
-422.46357322769165
20
-67.272069674682641
30
0
10
-426.34546447906484
20
-75.097156575012235
30
0
10
-431.74579037246701
20
-84.731196430969277
30
0
0
SPLINE
5
211
100
AcDbEntity
8
0
100
AcDbSpline
70
4
71
3
72
8
73
4
74
0
42
0.000000001
43
0.0000000001
44
0.0000000001
40
0
40
0
40
0
40
0
40
1
40
1
40
1
40
1
41
1
41
1
41
1
41
1
10
-431.74579037246701
20
-84.731196430969277
30
0
10
-433.60909451637264
20
-88.055282195282018
30
0
10
-434.82913269195558
20
-88.495609097290071
30
0
10
-437.03109523429868
20
-88.555741182708786
30
0
0
LINE
5
212
100
AcDbEntity
8
0
100
AcDbLine
10
-437.03109523429868
20
-88.555741182708786
30
0
11
-437.03109523429868
21
-13.120454098510761
31
0
0
LINE
5
213
100
AcDbEntity
8
0
100
AcDbLine
10
-437.03109523429868
20
-13.120454098510761
30
0
11
-413.98391668853753
21
-13.120454098510761
31
0
0
SPLINE
5
214
100
AcDbEntity
8
0
100
AcDbSpline
70
4
71
3
72
8
73
4
74
0
42
0.000000001
43
0.0000000001
44
0.0000000001
40
-1
40
-1
40
-1
40
-1
40
0
40
0
40
0
40
0
41
1
41
1
41
1
41
1
10
-170.41412403259267
20
-32.988553290557888
30
0
10
-160.22660226287832
20
-39.811904824066183
30
0
10
-156.40501517944324
20
-48.609736564254789
30
0
10
-155.47161808319083
20
-56.666667016601586
30
0
0
SPLINE
5
215
100
AcDbEntity
8
0
100
AcDbSpline
70
4
71
3
72
8
73
4
74
0
42
0.000000001
43
0.0000000001
44
0.0000000001
40
-1
40
-1
40
-1
40
-1
40
0
40
0
40
0
40
0
41
1
41
1
41
1
41
1
10
-155.47161808319083
20
-56.666667016601586
30
0
10
-154.54402877197253
20
-67.689541867065458
30
0
10
-154.8219635513305
20
-80.035182779693642
30
0
10
-165.18776281127919
20
-83.15686723556523
30
0
0
SPLINE
5
216
100
AcDbEntity
8
0
100
AcDbSpline
70
4
71
3
72
8
73
4
74
0
42
0.000000001
43
0.0000000001
44
0.0000000001
40
-1
40
-1
40
-1
40
-1
40
0
40
0
40
0
40
0
41
1
41
1
41
1
41
1
10
-165.18776281127919
20
-83.15686723556523
30
0
10
-170.15451604156485
20
-84.48630149536136
30
0
10
-175.56773736877432
20
-81.708502444458034
30
0
10
-177.08303150482166
20
-71.865834043884306
30
0
0
SPLINE
5
217
100
AcDbEntity
8
0
100
AcDbSpline
70
4
71
3
72
8
73
4
74
0
42
0.000000001
43
0.0000000001
44
0.0000000001
40
-1
40
-1
40
-1
40
-1
40
0
40
0
40
0
40
0
41
1
41
1
41
1
41
1
10
-177.08303150482166
20
-71.865834043884306
30
0
10
-179.01534611663809
20
-71.551073605346716
30
0
10
-180.71668296661369
20
-72.137831976318395
30
0
10
-182.88361058349602
20
-72.574459104156531
30
0
0
SPLINE
5
218
100
AcDbEntity
8
0
100
AcDbSpline
70
4
71
3
72
8
73
4
74
0
42
0.000000001
43
0.0000000001
44
0.0000000001
40
-1
40
-1
40
-1
40
-1
40
0
40
0
40
0
40
0
41
1
41
1
41
1
41
1
10
-182.88361058349602
20
-72.574459104156531
30
0
10
-184.47337342987052
20
-65.175545318603554
30
0
10
-187.06736683959949
20
-58.577180924224876
30
0
10
-191.33834742279043
20
-56.871896931457542
30
0
0
SPLINE
5
219
100
AcDbEntity
8
0
100
AcDbSpline
70
4
71
3
72
8
73
4
74
0
42
0.000000001
43
0.0000000001
44
0.0000000001
40
-1
40
-1
40
-1
40
-1
40
0
40
0
40
0
40
0
41
1
41
1
41
1
41
1
10
-191.33834742279043
20
-56.871896931457542
30
0
10
-203.22712000122061
20
-52.125043650817901
30
0
10
-205.79691430664053
20
-59.546209857177757
30
0
10
-213.13868594055165
20
-59.329633251190202
30
0
0
SPLINE
5
220
100
AcDbEntity
8
0
100
AcDbSpline
70
4
71
3
72
8
73
4
74
0
42
0.000000001
43
0.0000000001
44
0.0000000001
40
-1
40
-1
40
-1
40
-1
40
0
40
0
40
0
40
0
41
1
41
1
41
1
41
1
10
-213.13868594055165
20
-59.329633251190202
30
0
10
-208.46436544189444
20
-36.432908603286762
30
0
10
-188.64418047637929
20
-24.46618264350893
30
0
10
-170.41412403259267
20
-32.988553290557888
30
0
0
SPLINE
5
221
100
AcDbEntity
8
0
100
AcDbSpline
70
4
71
3
72
8
73
4
74
0
42
0.000000001
43
0.0000000001
44
0.0000000001
40
-1
40
-1
40
-1
40
-1
40
0
40
0
40
0
40
0
41
1
41
1
41
1
41
1
10
-322.63282492446888
20
-333.55028030395516
30
0
10
-346.65957783508298
20
-352.12060841979991
30
0
10
-401.05741123123164
20
-314.89001756134041
30
0
10
-417.78794059982295
20
-362.3145617736817
30
0
0
SPLINE
5
222
100
AcDbEntity
8
0
100
AcDbSpline
70
4
71
3
72
8
73
4
74
0
42
0.000000001
43
0.0000000001
44
0.0000000001
40
-1
40
-1
40
-1
40
-1
40
0
40
0
40
0
40
0
41
1
41
1
41
1
41
1
10
-417.78794059982295
20
-362.3145617736817
30
0
10
-424.09754514884946
20
-348.691046826172
30
0
10
-429.21692481880189
20
-323.44499246826183
30
0
10
-422.39270749511718
20
-305.46604744110118
30
0
0
SPLINE
5
223
100
AcDbEntity
8
0
100
AcDbSpline
70
4
71
3
72
8
73
4
74
0
42
0.000000001
43
0.0000000001
44
0.0000000001
40
-1
40
-1
40
-1
40
-1
40
0
40
0
40
0
40
0
41
1
41
1
41
1
41
1
10
-422.39270749511718
20
-305.46604744110118
30
0
10
-415.5064490455627
20
-288.28360786590588
30
0
10
-402.97324894180292
20
-280.71384840393074
30
0
10
-389.04048019638054
20
-280.23446952514661
30
0
0
SPLINE
5
224
100
AcDbEntity
8
0
100
AcDbSpline
70
4
71
3
72
8
73
4
74
0
42
0.000000001
43
0.0000000001
44
0.0000000001
40
-1
40
-1
40
-1
40
-1
40
0
40
0
40
0
40
0
41
1
41
1
41
1
41
1
10
-389.04048019638054
20
-280.23446952514661
30
0
10
-360.130079157257
20
-279.4635613479615
30
0
10
-355.18749276580809
20
-307.08900070343026
30
0
10
-388.11970965499876
20
-301.92590131835948
30
0
0
SPLINE
5
225
100
AcDbEntity
8
0
100
AcDbSpline
70
4
71
3
72
8
73
4
74
0
42
0.000000001
43
0.0000000001
44
0.0000000001
40
-1
40
-1
40
-1
40
-1
40
0
40
0
40
0
40
0
41
1
41
1
41
1
41
1
10
-388.11970965499876
20
-301.92590131835948
30
0
10
-390.16321108474727
20
-322.45014040222179
30
0
10
-362.11199655532829
20
-329.49618822631851
30
0
10
-345.89430536041255
20
-311.24444938507088
30
0
0
SPLINE
5
226
100
AcDbEntity
8
0
100
AcDbSpline
70
4
71
3
72
8
73
4
74
0
42
0.000000001
43
0.0000000001
44
0.0000000001
40
-1
40
-1
40
-1
40
-1
40
0
40
0
40
0
40
0
41
1
41
1
41
1
41
1
10
-345.89430536041255
20
-311.24444938507088
30
0
10
-345.93794978942867
20
-322.73244177551277
30
0
10
-333.69221353454583
20
-332.43148580322276
30
0
10
-322.63282492446888
20
-333.55028030395516
30
0
0
SPLINE
5
227
100
AcDbEntity
8
0
100
AcDbSpline
70
4
71
3
72
8
73
4
74
0
42
0.000000001
43
0.0000000001
44
0.0000000001
40
0
40
0
40
0
40
0
40
1
40
1
40
1
40
1
41
1
41
1
41
1
41
1
10
-116.25269975280752
20
-402.31553062438979
30
0
10
-110.3416221862792
20
-404.93380917968761
30
0
10
-107.63269916381823
20
-410.86226708068864
30
0
10
-109.03035338745106
20
-414.44515419921885
30
0
0
SPLINE
5
228
100
AcDbEntity
8
0
100
AcDbSpline
70
4
71
3
72
8
73
4
74
0
42
0.000000001
43
0.0000000001
44
0.0000000001
40
0
40
0
40
0
40
0
40
1
40
1
40
1
40
1
41
1
41
1
41
1
41
1
10
-109.03035338745106
20
-414.44515419921885
30
0
10
-112.18109827880845
20
-422.52184725341812
30
0
10
-125.61261215515124
20
-425.15823749389659
30
0
10
-131.46987091369618
20
-411.21387468872086
30
0
0
SPLINE
5
229
100
AcDbEntity
8
0
100
AcDbSpline
70
4
71
3
72
8
73
4
74
0
42
0.000000001
43
0.0000000001
44
0.0000000001
40
0
40
0
40
0
40
0
40
1
40
1
40
1
40
1
41
1
41
1
41
1
41
1
10
-131.46987091369618
20
-411.21387468872086
30
0
10
-134.44300513458239
20
-416.0084378479005
30
0
10
-139.89744022521961
20
-432.60984079589861
30
0
10
-129.60088266906723
20
-437.18891361999522
30
0
0
LINE
5
230
100
AcDbEntity
8
0
100
AcDbLine
10
-129.60088266906723
20
-437.18891361999522
30
0
11
-165.1121755645751
21
-437.18891361999522
31
0
0
SPLINE
5
231
100
AcDbEntity
8
0
100
AcDbSpline
70
4
71
3
72
8
73
4
74
0
42
0.000000001
43
0.0000000001
44
0.0000000001
40
0
40
0
40
0
40
0
40
1
40
1
40
1
40
1
41
1
41
1
41
1
41
1
10
-165.1121755645751
20
-437.18891361999522
30
0
10
-153.74350089111317
20
-426.68912660827652
30
0
10
-150.2479026306151
20
-420.10443201904309
30
0
10
-143.92382701721181
20
-411.06657205200207
30
0
0
SPLINE
5
232
100
AcDbEntity
8
0
100
AcDbSpline
70
4
71
3
72
8
73
4
74
0
42
0.000000001
43
0.0000000001
44
0.0000000001
40
0
40
0
40
0
40
0
40
1
40
1
40
1
40
1
41
1
41
1
41
1
41
1
10
-143.92382701721181
20
-411.06657205200207
30
0
10
-135.90983653106676
20
-399.20509606323259
30
0
10
-125.77540221862783
20
-399.02952887268077
30
0
10
-116.25269975280752
20
-402.31553062438979
30
0
0
SPLINE
5
233
100
AcDbEntity
8
0
100
AcDbSpline
70
4
71
3
72
8
73
4
74
0
42
0.000000001
43
0.0000000001
44
0.0000000001
40
-1
40
-1
40
-1
40
-1
40
0
40
0
40
0
40
0
41
1
41
1
41
1
41
1
10
-192.50624997253408
20
-13.120448720932023
30
0
10
-199.32093284912099
20
-17.159833120727555
30
0
10
-207.92710230560292
20
-25.11195456352236
30
0
10
-211.33743367767323
20
-28.968221652221693
30
0
0
SPLINE
5
234
100
AcDbEntity
8
0
100
AcDbSpline
70
4
71
3
72
8
73
4
74
0
42
0.000000001
43
0.0000000001
44
0.0000000001
40
-1
40
-1
40
-1
40
-1
40
0
40
0
40
0
40
0
41
1
41
1
41
1
41
1
10
-211.33743367767323
20
-28.968221652221693
30
0
10
-214.5162495300292
20
-22.02723558387758
30
0
10
-218.97852134399403
20
-15.023154384231585
30
0
10
-225.00024797058097
20
-14.797925254058857
30
0
0
SPLINE
5
235
100
AcDbEntity
8
0
100
AcDbSpline
70
4
71
3
72
8
73
4
74
0
42
0.000000001
43
0.0000000001
44
0.0000000001
40
0
40
0
40
0
40
0
40
1
40
1
40
1
40
1
41
1
41
1
41
1
41
1
10
-225.00024797058097
20
-14.797925254058857
30
0
10
-231.02197459716788
20
-15.023154384231585
30
0
10
-235.48424641113272
20
-22.02723558387758
30
0
10
-238.66306226348868
20
-28.968221652221693
30
0
0
SPLINE
5
236
100
AcDbEntity
8
0
100
AcDbSpline
70
4
71
3
72
8
73
4
74
0
42
0.000000001
43
0.0000000001
44
0.0000000001
40
0
40
0
40
0
40
0
40
1
40
1
40
1
40
1
41
1
41
1
41
1
41
1
10
-238.66306226348868
20
-28.968221652221693
30
0
10
-242.073393635559
20
-25.11195456352236
30
0
10
-250.67956309204092
20
-17.159833120727555
30
0
10
-257.49424596862787
20
-13.120448720932023
30
0
0
LINE
5
237
100
AcDbEntity
8
0
100
AcDbLine
10
-257.49424596862787
20
-13.120448720932023
30
0
11
-192.50624997253408
21
-13.120448720932023
31
0
0
LINE
5
238
100
AcDbEntity
8
0
100
AcDbLine
10
-12.969416839599432
20
-13.120454098510761
30
0
11
-12.969416839599432
21
-88.555741182708786
31
0
0
SPLINE
5
239
100
AcDbEntity
8
0
100
AcDbSpline
70
4
71
3
72
8
73
4
74
0
42
0.000000001
43
0.0000000001
44
0.0000000001
40
-1
40
-1
40
-1
40
-1
40
0
40
0
40
0
40
0
41
1
41
1
41
1
41
1
10
-12.969416839599432
20
-88.555741182708786
30
0
10
-15.171384759521302
20
-88.495609097290071
30
0
10
-16.391406802367996
20
-88.055282195282018
30
0
10
-18.254716323852378
20
-84.731196430969277
30
0
0
SPLINE
5
240
100
AcDbEntity
8
0
100
AcDbSpline
70
4
71
3
72
8
73
4
74
0
42
0.000000001
43
0.0000000001
44
0.0000000001
40
-1
40
-1
40
-1
40
-1
40
0
40
0
40
0
40
0
41
1
41
1
41
1
41
1
10
-18.254716323852378
20
-84.731196430969277
30
0
10
-23.655052972411994
20
-75.097156575012235
30
0
10
-27.536933468627751
20
-67.272069674682641
30
0
10
-34.084974481201016
20
-63.210072556304965
30
0
0
SPLINE
5
241
100
AcDbEntity
8
0
100
AcDbSpline
70
4
71
3
72
8
73
4
74
0
42
0.000000001
43
0.0000000001
44
0.0000000001
40
-1
40
-1
40
-1
40
-1
40
0
40
0
40
0
40
0
41
1
41
1
41
1
41
1
10
-34.084974481201016
20
-63.210072556304965
30
0
10
-0.87803860473620432
20
-38.460046060943625
30
0
10
-26.031125381469593
20
-13.120454098510761
30
0
10
-36.016600762939319
20
-13.120454098510761
30
0
0
LINE
5
242
100
AcDbEntity
8
0
100
AcDbLine
10
-36.016600762939326
20
-13.120454098510759
30
0
11
-12.969416839599432
21
-13.120454098510761
31
0
0
SPLINE
5
243
100
AcDbEntity
8
0
100
AcDbSpline
70
4
71
3
72
8
73
4
74
0
42
0.000000001
43
0.0000000001
44
0.0000000001
40
0
40
0
40
0
40
0
40
1
40
1
40
1
40
1
41
1
41
1
41
1
41
1
10
-121.73249550476065
20
-262.7108333343507
30
0
10
-127.87786342163074
20
-270.21350212402353
30
0
10
-136.36753301239003
20
-270.19526137695323
30
0
10
-140.48247777099596
20
-264.89983053436288
30
0
0
SPLINE
5
244
100
AcDbEntity
8
0
100
AcDbSpline
70
4
71
3
72
8
73
4
74
0
42
0.000000001
43
0.0000000001
44
0.0000000001
40
0
40
0
40
0
40
0
40
1
40
1
40
1
40
1
41
1
41
1
41
1
41
1
10
-140.48247777099596
20
-264.89983053436288
30
0
10
-143.26031984252921
20
-259.9426278839112
30
0
10
-143.33354095458972
20
-249.72305574493416
30
0
10
-128.37120249481188
20
-244.31686829071054
30
0
0
SPLINE
5
245
100
AcDbEntity
8
0
100
AcDbSpline
70
4
71
3
72
8
73
4
74
0
42
0.000000001
43
0.0000000001
44
0.0000000001
40
0
40
0
40
0
40
0
40
1
40
1
40
1
40
1
41
1
41
1
41
1
41
1
10
-128.37120249481188
20
-244.31686829071054
30
0
10
-110.39225746765126
20
-237.49265634460457
30
0
10
-85.349776730346534
20
-243.42634125213633
30
0
10
-65.822540744018454
20
-263.98635198974614
30
0
0
SPLINE
5
246
100
AcDbEntity
8
0
100
AcDbSpline
70
4
71
3
72
8
73
4
74
0
42
0.000000001
43
0.0000000001
44
0.0000000001
40
0
40
0
40
0
40
0
40
1
40
1
40
1
40
1
41
1
41
1
41
1
41
1
10
-65.822540744018454
20
-263.98635198974614
30
0
10
-83.113134182739117
20
-263.6224189712525
30
0
10
-103.60816225891099
20
-268.00346783599866
30
0
10
-107.00502817382798
20
-292.16454190826425
30
0
0
SPLINE
5
247
100
AcDbEntity
8
0
100
AcDbSpline
70
4
71
3
72
8
73
4
74
0
42
0.000000001
43
0.0000000001
44
0.0000000001
40
0
40
0
40
0
40
0
40
1
40
1
40
1
40
1
41
1
41
1
41
1
41
1
10
-107.00502817382798
20
-292.16454190826425
30
0
10
-109.94325115356432
20
-286.86891747283943
30
0
10
-116.42960058288566
20
-278.75202164001473
30
0
10
-125.44289577026355
20
-280.09981495361336
30
0
0
SPLINE
5
248
100
AcDbEntity
8
0
100
AcDbSpline
70
4
71
3
72
8
73
4
74
0
42
0.000000001
43
0.0000000001
44
0.0000000001
40
0
40
0
40
0
40
0
40
1
40
1
40
1
40
1
41
1
41
1
41
1
41
1
10
-125.44289577026355
20
-280.09981495361336
30
0
10
-118.20983726806631
20
-274.06731165924083
30
0
10
-118.66503855285636
20
-268.10428668212899
30
0
10
-121.73249550476065
20
-262.7108333343507
30
0
0
SPLINE
5
249
100
AcDbEntity
8
0
100
AcDbSpline
70
4
71
3
72
8
73
4
74
0
42
0.000000001
43
0.0000000001
44
0.0000000001
40
-1
40
-1
40
-1
40
-1
40
0
40
0
40
0
40
0
41
1
41
1
41
1
41
1
10
-147.07080760345448
20
-352.23052612915046
30
0
10
-152.90343705139151
20
-346.11411109619155
30
0
10
-160.73652578887931
20
-341.34574750061051
30
0
10
-170.72055997924795
20
-344.96533121643074
30
0
0
SPLINE
5
250
100
AcDbEntity
8
0
100
AcDbSpline
70
4
71
3
72
8
73
4
74
0
42
0.000000001
43
0.0000000001
44
0.0000000001
40
-1
40
-1
40
-1
40
-1
40
0
40
0
40
0
40
0
41
1
41
1
41
1
41
1
10
-170.72055997924795
20
-344.96533121643074
30
0
10
-164.57551471710195
20
-332.97281438903815
30
0
10
-169.58511649475088
20
-324.8227281402589
30
0
10
-176.85807663116447
20
-324.17974180603039
30
0
0
SPLINE
5
251
100
AcDbEntity
8
0
100
AcDbSpline
70
4
71
3
72
8
73
4
74
0
42
0.000000001
43
0.0000000001
44
0.0000000001
40
-1
40
-1
40
-1
40
-1
40
0
40
0
40
0
40
0
41
1
41
1
41
1
41
1
10
-176.85807663116447
20
-324.17974180603039
30
0
10
-180.90997465667715
20
-333.82608556213393
30
0
10
-188.58653283233633
20
-335.53770434265147
30
0
10
-193.97686718444814
20
-333.00262768554694
30
0
0
SPLINE
5
252
100
AcDbEntity
8
0
100
AcDbSpline
70
4
71
3
72
8
73
4
74
0
42
0.000000001
43
0.0000000001
44
0.0000000001
40
-1
40
-1
40
-1
40
-1
40
0
40
0
40
0
40
0
41
1
41
1
41
1
41
1
10
-193.97686718444814
20
-333.00262768554694
30
0
10
-202.41435275115958
20
-328.89209254150398
30
0
10
-202.08709481964104
20
-317.8146890426637
30
0
10
-193.55795380096424
20
-313.05736023864756
30
0
0
SPLINE
5
253
100
AcDbEntity
8
0
100
AcDbSpline
70
4
71
3
72
8
73
4
74
0
42
0.000000001
43
0.0000000001
44
0.0000000001
40
-1
40
-1
40
-1
40
-1
40
0
40
0
40
0
40
0
41
1
41
1
41
1
41
1
10
-193.55795380096424
20
-313.05736023864756
30
0
10
-184.03525133514393
20
-305.32326197052015
30
0
10
-165.59772790374745
20
-308.31597057800303
30
0
10
-157.58373741760244
20
-320.17742505645765
30
0
0
SPLINE
5
254
100
AcDbEntity
8
0
100
AcDbSpline
70
4
71
3
72
8
73
4
74
0
42
0.000000001
43
0.0000000001
44
0.0000000001
40
-1
40
-1
40
-1
40
-1
40
0
40
0
40
0
40
0
41
1
41
1
41
1
41
1
10
-157.58373741760244
20
-320.17742505645765
30
0
10
-151.25966180419908
20
-329.21526351318369
30
0
10
-146.87446144866931
20
-332.68629699401862
30
0
10
-147.07080760345448
20
-352.23052612915046
30
0
0
SPLINE
5
255
100
AcDbEntity
8
0
100
AcDbSpline
70
4
71
3
72
8
73
4
74
0
42
0.000000001
43
0.0000000001
44
0.0000000001
40
-1
40
-1
40
-1
40
-1
40
0
40
0
40
0
40
0
41
1
41
1
41
1
41
1
10
-416.16475072402949
20
-185.12560102691657
30
0
10
-409.72648760375978
20
-205.60146341247565
30
0
10
-425.92540029373168
20
-208.95681441955574
30
0
10
-430.14071755943291
20
-209.09557746124275
30
0
0
SPLINE
5
256
100
AcDbEntity
8
0
100
AcDbSpline
70
4
71
3
72
8
73
4
74
0
42
0.000000001
43
0.0000000001
44
0.0000000001
40
-1
40
-1
40
-1
40
-1
40
-0.00026584662154424969
40
-0.00026584662154424969
40
-0.00026584662154424969
40
-0.00026584662154424969
41
1
41
1
41
1
41
1
10
-430.14071755943291
20
-209.09557746124275
30
0
10
-428.73540830681111
20
-217.56516279152743
30
0
10
-425.96887599517538
20
-220.88120870172307
30
0
10
-421.10708070856822
20
-225.15469461441046
30
0
0
SPLINE
5
257
100
AcDbEntity
8
0
100
AcDbSpline
70
4
71
3
72
8
73
4
74
0
42
0.000000001
43
0.0000000001
44
0.0000000001
40
0.00026584662154907976
40
0.00026584662154907976
40
0.00026584662154907976
40
0.00026584662154907976
40
1
40
1
40
1
40
1
41
1
41
1
41
1
41
1
10
-421.10708070856839
20
-225.15469461441054
30
0
10
-425.96887599517544
20
-229.42818052709785
30
0
10
-428.73540830681117
20
-232.74422643729361
30
0
10
-430.14071755943291
20
-241.21381176757822
30
0
0
SPLINE
5
258
100
AcDbEntity
8
0
100
AcDbSpline
70
4
71
3
72
8
73
4
74
0
42
0.000000001
43
0.0000000001
44
0.0000000001
40
0
40
0
40
0
40
0
40
1
40
1
40
1
40
1
41
1
41
1
41
1
41
1
10
-430.14071755943291
20
-241.21381176757822
30
0
10
-425.92540029373168
20
-241.35257480926523
30
0
10
-409.72648760375978
20
-244.70792581634529
30
0
10
-416.16475072402949
20
-265.18378820190441
30
0
0
SPLINE
5
259
100
AcDbEntity
8
0
100
AcDbSpline
70
4
71
3
72
8
73
4
74
0
42
0.000000001
43
0.0000000001
44
0.0000000001
40
0
40
0
40
0
40
0
40
1
40
1
40
1
40
1
41
1
41
1
41
1
41
1
10
-416.16475072402949
20
-265.18378820190441
30
0
10
-419.37510607566827
20
-278.12697490844732
30
0
10
-432.89910892868033
20
-297.07171156616221
30
0
10
-437.03108985671997
20
-306.46059836273201
30
0
0
LINE
5
260
100
AcDbEntity
8
0
100
AcDbLine
10
-437.03108985672003
20
-306.46059836273201
30
0
11
-437.03108985672003
21
-143.8487908660889
31
0
0
SPLINE
5
261
100
AcDbEntity
8
0
100
AcDbSpline
70
4
71
3
72
8
73
4
74
0
42
0.000000001
43
0.0000000001
44
0.0000000001
40
-1
40
-1
40
-1
40
-1
40
0
40
0
40
0
40
0
41
1
41
1
41
1
41
1
10
-437.03108985671997
20
-143.8487908660889
30
0
10
-432.89910892868033
20
-153.23767766265874
30
0
10
-419.37510607566827
20
-172.1824143203736
30
0
10
-416.16475072402949
20
-185.12560102691657
30
0
0
SPLINE
5
262
100
AcDbEntity
8
0
100
AcDbSpline
70
4
71
3
72
8
73
4
74
0
42
0.000000001
43
0.0000000001
44
0.0000000001
40
-1
40
-1
40
-1
40
-1
40
0
40
0
40
0
40
0
41
1
41
1
41
1
41
1
10
-343.05528795318594
20
-292.10259220123299
30
0
10
-346.45212160263054
20
-267.94151812896735
30
0
10
-366.9471711891174
20
-263.5604692642213
30
0
10
-384.23776462783803
20
-263.92440228271494
30
0
0
SPLINE
5
263
100
AcDbEntity
8
0
100
AcDbSpline
70
4
71
3
72
8
73
4
74
0
42
0.000000001
43
0.0000000001
44
0.0000000001
40
-1
40
-1
40
-1
40
-1
40
0
40
0
40
0
40
0
41
1
41
1
41
1
41
1
10
-384.23776462783803
20
-263.92440228271494
30
0
10
-364.71052864151
20
-243.36439154510504
30
0
10
-339.66802639389027
20
-237.43070663757334
30
0
10
-321.68910287704466
20
-244.25491858367928
30
0
0
SPLINE
5
264
100
AcDbEntity
8
0
100
AcDbSpline
70
4
71
3
72
8
73
4
74
0
42
0.000000001
43
0.0000000001
44
0.0000000001
40
-1
40
-1
40
-1
40
-1
40
0
40
0
40
0
40
0
41
1
41
1
41
1
41
1
10
-321.68910287704466
20
-244.25491858367928
30
0
10
-306.72677517242425
20
-249.66110603790293
30
0
10
-306.79997477416987
20
-259.88067817688
30
0
10
-309.57782760086053
20
-264.83788082733162
30
0
0
SPLINE
5
265
100
AcDbEntity
8
0
100
AcDbSpline
70
4
71
3
72
8
73
4
74
0
42
0.000000001
43
0.0000000001
44
0.0000000001
40
-1
40
-1
40
-1
40
-1
40
0
40
0
40
0
40
0
41
1
41
1
41
1
41
1
10
-309.57782760086053
20
-264.83788082733162
30
0
10
-313.69278311462392
20
-270.13331166992197
30
0
10
-322.18247421569811
20
-270.15155241699227
30
0
10
-328.32782062225334
20
-262.64888362731944
30
0
0
SPLINE
5
266
100
AcDbEntity
8
0
100
AcDbSpline
70
4
71
3
72
8
73
4
74
0
42
0.000000001
43
0.0000000001
44
0.0000000001
40
-1
40
-1
40
-1
40
-1
40
0
40
0
40
0
40
0
41
1
41
1
41
1
41
1
10
-328.32782062225334
20
-262.64888362731944
30
0
10
-331.39528832931512
20
-268.04233697509773
30
0
10
-331.85050036926265
20
-274.00536195220957
30
0
10
-324.61742035675047
20
-280.0378652465821
30
0
0
SPLINE
5
267
100
AcDbEntity
8
0
100
AcDbSpline
70
4
71
3
72
8
73
4
74
0
42
0.000000001
43
0.0000000001
44
0.0000000001
40
-1
40
-1
40
-1
40
-1
40
0
40
0
40
0
40
0
41
1
41
1
41
1
41
1
10
-324.61742035675047
20
-280.0378652465821
30
0
10
-333.63070478897089
20
-278.69007193298347
30
0
10
-340.1170542182922
20
-286.80696776580817
30
0
10
-343.05528795318594
20
-292.10259220123299
30
0
0
SPLINE
5
268
100
AcDbEntity
8
0
100
AcDbSpline
70
4
71
3
72
8
73
4
74
0
42
0.000000001
43
0.0000000001
44
0.0000000001
40
-1
40
-1
40
-1
40
-1
40
0
40
0
40
0
40
0
41
1
41
1
41
1
41
1
10
-180.49131939697253
20
-350.53581445617687
30
0
10
-186.7559835205077
20
-354.88575940551766
30
0
10
-188.11416631622305
20
-360.79133033142102
30
0
10
-186.86689070434562
20
-368.10651521606462
30
0
0
SPLINE
5
269
100
AcDbEntity
8
0
100
AcDbSpline
70
4
71
3
72
8
73
4
74
0
42
0.000000001
43
0.0000000001
44
0.0000000001
40
-1
40
-1
40
-1
40
-1
40
0
40
0
40
0
40
0
41
1
41
1
41
1
41
1
10
-186.86689070434562
20
-368.10651521606462
30
0
10
-190.55631841278068
20
-366.26127435913099
30
0
10
-192.18251973266592
20
-366.82277962036147
30
0
10
-195.34610628204337
20
-367.57189784851084
30
0
0
SPLINE
5
270
100
AcDbEntity
8
0
100
AcDbSpline
70
4
71
3
72
8
73
4
74
0
42
0.000000001
43
0.0000000001
44
0.0000000001
40
-1
40
-1
40
-1
40
-1
40
0
40
0
40
0
40
0
41
1
41
1
41
1
41
1
10
-195.34610628204337
20
-367.57189784851084
30
0
10
-193.70635346374502
20
-374.88570607299812
30
0
10
-195.25664488220204
20
-378.55902255554213
30
0
10
-201.05365324859608
20
-380.0943427947999
30
0
0
SPLINE
5
271
100
AcDbEntity
8
0
100
AcDbSpline
70
4
71
3
72
8
73
4
74
0
42
0.000000001
43
0.0000000001
44
0.0000000001
40
-1
40
-1
40
-1
40
-1
40
0
40
0
40
0
40
0
41
1
41
1
41
1
41
1
10
-201.05365324859608
20
-380.0943427947999
30
0
10
-214.4108274765014
20
-381.05619803771987
30
0
10
-228.30231792755117
20
-344.17826879272474
30
0
10
-216.24299006195059
20
-333.605776916504
30
0
0
SPLINE
5
272
100
AcDbEntity
8
0
100
AcDbSpline
70
4
71
3
72
8
73
4
74
0
42
0.000000001
43
0.0000000001
44
0.0000000001
40
-1
40
-1
40
-1
40
-1
40
0
40
0
40
0
40
0
41
1
41
1
41
1
41
1
10
-216.24299006195059
20
-333.605776916504
30
0
10
-214.88504387969959
20
-332.38528164672863
30
0
10
-211.27957093048084
20
-332.13911760253916
30
0
10
-210.02382025451652
20
-334.95331210632338
30
0
0
SPLINE
5
273
100
AcDbEntity
8
0
100
AcDbSpline
70
4
71
3
72
8
73
4
74
0
42
0.000000001
43
0.0000000001
44
0.0000000001
40
-1
40
-1
40
-1
40
-1
40
0
40
0
40
0
40
0
41
1
41
1
41
1
41
1
10
-210.02382025451652
20
-334.95331210632338
30
0
10
-206.32370191955556
20
-343.75275174255376
30
0
10
-196.32880502014149
20
-354.1944609039308
30
0
10
-180.49131939697253
20
-350.53581445617687
30
0
0
SPLINE
5
274
100
AcDbEntity
8
0
100
AcDbSpline
70
4
71
3
72
8
73
4
74
0
42
0.000000001
43
0.0000000001
44
0.0000000001
40
-0.99751686591409217
40
-0.99751686591409217
40
-0.99751686591409217
40
-0.99751686591409217
40
0
40
0
40
0
40
0
41
1
41
1
41
1
41
1
10
-38.097426161843522
20
-225.15469461442905
30
0
10
-49.867314877278304
20
-231.41701827840586
30
0
10
-54.811987551989453
20
-245.36797668883094
30
0
10
-53.246449072265492
20
-256.88926018829352
30
0
0
SPLINE
5
275
100
AcDbEntity
8
0
100
AcDbSpline
70
4
71
3
72
8
73
4
74
0
42
0.000000001
43
0.0000000001
44
0.0000000001
40
-1
40
-1
40
-1
40
-1
40
-0.00037183744068171288
40
-0.00037183744068171288
40
-0.00037183744068171288
40
-0.00037183744068171288
41
1
41
1
41
1
41
1
10
-53.246449072265492
20
-256.88926018829352
30
0
10
-68.489742343111473
20
-238.44900248521824
30
0
10
-90.179569449989231
20
-228.21256834502879
30
0
10
-101.56170764304287
20
-225.15469461441046
30
0
0
SPLINE
5
276
100
AcDbEntity
8
0
100
AcDbSpline
70
4
71
3
72
8
73
4
74
0
42
0.000000001
43
0.0000000001
44
0.0000000001
40
0.00037183744068150162
40
0.00037183744068150162
40
0.00037183744068150162
40
0.00037183744068150162
40
1
40
1
40
1
40
1
41
1
41
1
41
1
41
1
10
-101.56170764304287
20
-225.15469461441043
30
0
10
-90.179569449989231
20
-222.09682088379222
30
0
10
-68.489742343111473
20
-211.86038674360273
30
0
10
-53.246449072265492
20
-193.4201290405274
30
0
0
SPLINE
5
277
100
AcDbEntity
8
0
100
AcDbSpline
70
4
71
3
72
8
73
4
74
0
42
0.000000001
43
0.0000000001
44
0.0000000001
40
0
40
0
40
0
40
0
40
0.99751686591409205
40
0.99751686591409205
40
0.99751686591409205
40
0.99751686591409205
41
1
41
1
41
1
41
1
10
-53.246449072265492
20
-193.4201290405274
30
0
10
-54.811987551989453
20
-204.94141253999001
30
0
10
-49.867314877278311
20
-218.89237095041517
30
0
10
-38.097426161843529
20
-225.15469461439184
30
0
0
SPLINE
5
278
100
AcDbEntity
8
0
100
AcDbSpline
70
4
71
3
72
8
73
4
74
0
42
0.000000001
43
0.0000000001
44
0.0000000001
40
-1
40
-1
40
-1
40
-1
40
0
40
0
40
0
40
0
41
1
41
1
41
1
41
1
10
-216.03509286804189
20
-161.47262210388189
30
0
10
-216.45970648498525
20
-152.73063651885991
30
0
10
-220.32829360656731
20
-151.71007962646487
30
0
10
-219.68474800415032
20
-141.67340969543463
30
0
0
SPLINE
5
279
100
AcDbEntity
8
0
100
AcDbSpline
70
4
71
3
72
8
73
4
74
0
42
0.000000001
43
0.0000000001
44
0.0000000001
40
-1
40
-1
40
-1
40
-1
40
0
40
0
40
0
40
0
41
1
41
1
41
1
41
1
10
-219.68474800415032
20
-141.67340969543463
30
0
10
-211.53356472930898
20
-147.81225998687748
30
0
10
-194.17166459655755
20
-158.51523343353279
30
0
10
-182.746675918579
20
-158.14112603607182
30
0
0
SPLINE
5
280
100
AcDbEntity
8
0
100
AcDbSpline
70
4
71
3
72
8
73
4
74
0
42
0.000000001
43
0.0000000001
44
0.0000000001
40
-1
40
-1
40
-1
40
-1
40
0
40
0
40
0
40
0
41
1
41
1
41
1
41
1
10
-182.746675918579
20
-158.14112603607182
30
0
10
-158.16565596771227
20
-157.33623156127936
30
0
10
-153.61140604705804
20
-135.99704193038946
30
0
10
-133.13930796661367
20
-133.17537259216311
30
0
0
SPLINE
5
281
100
AcDbEntity
8
0
100
AcDbSpline
70
4
71
3
72
8
73
4
74
0
42
0.000000001
43
0.0000000001
44
0.0000000001
40
-1
40
-1
40
-1
40
-1
40
0
40
0
40
0
40
0
41
1
41
1
41
1
41
1
10
-133.13930796661367
20
-133.17537259216311
30
0
10
-112.69962593078603
20
-135.99009409866338
30
0
10
-113.85838659667954
20
-144.68063776550298
30
0
10
-116.63622866821278
20
-150.67388473510746
30
0
0
SPLINE
5
282
100
AcDbEntity
8
0
100
AcDbSpline
70
4
71
3
72
8
73
4
74
0
42
0.000000001
43
0.0000000001
44
0.0000000001
40
-1
40
-1
40
-1
40
-1
40
0
40
0
40
0
40
0
41
1
41
1
41
1
41
1
10
-116.63622866821278
20
-150.67388473510746
30
0
10
-120.75115191650376
20
-155.96931557769781
30
0
10
-130.46176849365224
20
-153.78668543090825
30
0
10
-134.66324924926744
20
-149.35530242919927
30
0
0
SPLINE
5
283
100
AcDbEntity
8
0
100
AcDbSpline
70
4
71
3
72
8
73
4
74
0
42
0.000000001
43
0.0000000001
44
0.0000000001
40
-1
40
-1
40
-1
40
-1
40
0
40
0
40
0
40
0
41
1
41
1
41
1
41
1
10
-134.66324924926744
20
-149.35530242919927
30
0
10
-140.21615856170641
20
-140.25224469757086
30
0
10
-152.07731189575185
20
-152.11339803161624
30
0
10
-143.98179731597892
20
-165.3192256835938
30
0
0
SPLINE
5
284
100
AcDbEntity
8
0
100
AcDbSpline
70
4
71
3
72
8
73
4
74
0
42
0.000000001
43
0.0000000001
44
0.0000000001
40
-1
40
-1
40
-1
40
-1
40
0
40
0
40
0
40
0
41
1
41
1
41
1
41
1
10
-143.98179731597892
20
-165.3192256835938
30
0
10
-159.3691150680541
20
-168.02918120117195
30
0
10
-169.29246865997303
20
-198.52269839935309
30
0
10
-144.09771640319809
20
-217.08151849670418
30
0
0
SPLINE
5
285
100
AcDbEntity
8
0
100
AcDbSpline
70
4
71
3
72
8
73
4
74
0
42
0.000000001
43
0.0000000001
44
0.0000000001
40
-1
40
-1
40
-1
40
-1
40
0
40
0
40
0
40
0
41
1
41
1
41
1
41
1
10
-144.09771640319809
20
-217.08151849670418
30
0
10
-150.3527869262694
20
-220.29343872375495
30
0
10
-157.02324314117419
20
-222.44842811584479
30
0
10
-162.02847832489005
20
-210.85008780975352
30
0
0
SPLINE
5
286
100
AcDbEntity
8
0
100
AcDbSpline
70
4
71
3
72
8
73
4
74
0
42
0.000000001
43
0.0000000001
44
0.0000000001
40
-1
40
-1
40
-1
40
-1
40
0
40
0
40
0
40
0
41
1
41
1
41
1
41
1
10
-162.02847832489005
20
-210.85008780975352
30
0
10
-161.49566782379139
20
-206.07813199157721
30
0
10
-161.42560872802727
20
-198.68621981353766
30
0
10
-174.32730203704824
20
-206.10766565399177
30
0
0
SPLINE
5
287
100
AcDbEntity
8
0
100
AcDbSpline
70
4
71
3
72
8
73
4
74
0
42
0.000000001
43
0.0000000001
44
0.0000000001
40
-1
40
-1
40
-1
40
-1
40
0
40
0
40
0
40
0
41
1
41
1
41
1
41
1
10
-174.32730203704824
20
-206.10766565399177
30
0
10
-182.94134426879873
20
-209.21926177215582
30
0
10
-188.61531363372794
20
-213.15771439666753
30
0
10
-193.45741458892815
20
-214.95956894836434
30
0
0
SPLINE
5
288
100
AcDbEntity
8
0
100
AcDbSpline
70
4
71
3
72
8
73
4
74
0
42
0.000000001
43
0.0000000001
44
0.0000000001
40
-1
40
-1
40
-1
40
-1
40
0
40
0
40
0
40
0
41
1
41
1
41
1
41
1
10
-193.45741458892815
20
-214.95956894836434
30
0
10
-202.32411697998037
20
-218.4792802719117
30
0
10
-207.82856355285634
20
-209.24638627929696
30
0
10
-197.3863381439208
20
-204.89925918121344
30
0
0
SPLINE
5
289
100
AcDbEntity
8
0
100
AcDbSpline
70
4
71
3
72
8
73
4
74
0
42
0.000000001
43
0.0000000001
44
0.0000000001
40
-1
40
-1
40
-1
40
-1
40
0
40
0
40
0
40
0
41
1
41
1
41
1
41
1
10
-197.3863381439208
20
-204.89925918121344
30
0
10
-186.74755147705068
20
-200.6942937545777
30
0
10
-149.35462227172843
20
-198.28014808807379
30
0
10
-173.91131405639638
20
-182.05126077423103
30
0
0
SPLINE
5
290
100
AcDbEntity
8
0
100
AcDbSpline
70
4
71
3
72
8
73
4
74
0
42
0.000000001
43
0.0000000001
44
0.0000000001
40
-1
40
-1
40
-1
40
-1
40
0
40
0
40
0
40
0
41
1
41
1
41
1
41
1
10
-173.91131405639638
20
-182.05126077423103
30
0
10
-166.18612105865466
20
-173.59934178619392
30
0
10
-163.82983813934317
20
-165.17342876892093
30
0
10
-164.82032361145008
20
-164.8564097473145
30
0
0
SPLINE
5
291
100
AcDbEntity
8
0
100
AcDbSpline
70
4
71
3
72
8
73
4
74
0
42
0.000000001
43
0.0000000001
44
0.0000000001
40
-1
40
-1
40
-1
40
-1
40
0
40
0
40
0
40
0
41
1
41
1
41
1
41
1
10
-164.82032361145008
20
-164.8564097473145
30
0
10
-173.55727578277578
20
-158.90910881042487
30
0
10
-179.06208803100577
20
-174.61946847229012
30
0
10
-183.78635548095696
20
-169.75824484710699
30
0
0
SPLINE
5
292
100
AcDbEntity
8
0
100
AcDbSpline
70
4
71
3
72
8
73
4
74
0
42
0.000000001
43
0.0000000001
44
0.0000000001
40
-1
40
-1
40
-1
40
-1
40
0
40
0
40
0
40
0
41
1
41
1
41
1
41
1
10
-183.78635548095696
20
-169.75824484710699
30
0
10
-200.24363931884756
20
-154.43502783355717
30
0
10
-202.12383443756093
20
-186.62231025085453
30
0
10
-210.01459232940664
20
-197.83327129516607
30
0
0
SPLINE
5
293
100
AcDbEntity
8
0
100
AcDbSpline
70
4
71
3
72
8
73
4
74
0
42
0.000000001
43
0.0000000001
44
0.0000000001
40
-1
40
-1
40
-1
40
-1
40
0
40
0
40
0
40
0
41
1
41
1
41
1
41
1
10
-210.01459232940664
20
-197.83327129516607
30
0
10
-213.70987084350577
20
-202.97030017852791
30
0
10
-218.40867008056631
20
-202.78886067199716
30
0
10
-217.56383095092764
20
-194.59938903656013
30
0
0
SPLINE
5
294
100
AcDbEntity
8
0
100
AcDbSpline
70
4
71
3
72
8
73
4
74
0
42
0.000000001
43
0.0000000001
44
0.0000000001
40
-1
40
-1
40
-1
40
-1
40
0
40
0
40
0
40
0
41
1
41
1
41
1
41
1
10
-217.56383095092764
20
-194.59938903656013
30
0
10
-217.15569423522939
20
-190.23156901550297
30
0
10
-215.09825412139884
20
-184.32814912109382
30
0
10
-210.02035709381093
20
-178.2670586181641
30
0
0
SPLINE
5
295
100
AcDbEntity
8
0
100
AcDbSpline
70
4
71
3
72
8
73
4
74
0
42
0.000000001
43
0.0000000001
44
0.0000000001
40
-1
40
-1
40
-1
40
-1
40
0
40
0
40
0
40
0
41
1
41
1
41
1
41
1
10
-210.02035709381093
20
-178.2670586181641
30
0
10
-197.70593840332023
20
-160.86067515411384
30
0
10
-211.93718427886952
20
-162.41804346618659
30
0
10
-216.03509286804189
20
-161.47262210388189
30
0
0
SPLINE
5
296
100
AcDbEntity
8
0
100
AcDbSpline
70
4
71
3
72
8
73
4
74
0
42
0.000000001
43
0.0000000001
44
0.0000000001
40
0
40
0
40
0
40
0
40
1
40
1
40
1
40
1
41
1
41
1
41
1
41
1
10
-193.55795380096424
20
-137.25200747985843
30
0
10
-202.08709481964104
20
-132.49468943099981
30
0
10
-202.41435275115958
20
-121.41728593215947
30
0
10
-193.97686718444814
20
-117.30676154327398
30
0
0
SPLINE
5
297
100
AcDbEntity
8
0
100
AcDbSpline
70
4
71
3
72
8
73
4
74
0
42
0.000000001
43
0.0000000001
44
0.0000000001
40
0
40
0
40
0
40
0
40
1
40
1
40
1
40
1
41
1
41
1
41
1
41
1
10
-193.97686718444814
20
-117.30676154327398
30
0
10
-188.58653283233633
20
-114.77168488616948
30
0
10
-180.90997465667715
20
-116.48330366668705
30
0
10
-176.85807663116447
20
-126.12962591247563
30
0
0
SPLINE
5
298
100
AcDbEntity
8
0
100
AcDbSpline
70
4
71
3
72
8
73
4
74
0
42
0.000000001
43
0.0000000001
44
0.0000000001
40
0
40
0
40
0
40
0
40
1
40
1
40
1
40
1
41
1
41
1
41
1
41
1
10
-176.85807663116447
20
-126.12962591247563
30
0
10
-169.58511649475088
20
-125.48662882308963
30
0
10
-164.57551471710195
20
-117.33656408462529
30
0
10
-170.72055997924795
20
-105.34403650207524
30
0
0
SPLINE
5
299
100
AcDbEntity
8
0
100
AcDbSpline
70
4
71
3
72
8
73
4
74
0
42
0.000000001
43
0.0000000001
44
0.0000000001
40
0
40
0
40
0
40
0
40
1
40
1
40
1
40
1
41
1
41
1
41
1
41
1
10
-170.72055997924795
20
-105.34403650207524
30
0
10
-160.73652578887931
20
-108.96362021789555
30
0
10
-152.90343705139151
20
-104.19524586715703
30
0
10
-147.07080760345448
20
-98.078841589355505
30
0
0
SPLINE
5
300
100
AcDbEntity
8
0
100
AcDbSpline
70
4
71
3
72
8
73
4
74
0
42
0.000000001
43
0.0000000001
44
0.0000000001
40
0
40
0
40
0
40
0
40
1
40
1
40
1
40
1
41
1
41
1
41
1
41
1
10
-147.07080760345448
20
-98.078841589355505
30
0
10
-146.87446144866931
20
-117.62305996932987
30
0
10
-151.25966180419908
20
-121.09410420532231
30
0
10
-157.58373741760244
20
-130.13194266204837
30
0
0
SPLINE
5
301
100
AcDbEntity
8
0
100
AcDbSpline
70
4
71
3
72
8
73
4
74
0
42
0.000000001
43
0.0000000001
44
0.0000000001
40
0
40
0
40
0
40
0
40
1
40
1
40
1
40
1
41
1
41
1
41
1
41
1
10
-157.58373741760244
20
-130.13194266204837
30
0
10
-165.59772790374745
20
-141.99339714050296
30
0
10
-184.03525133514393
20
-144.9861057479859
30
0
10
-193.55795380096424
20
-137.25200747985843
30
0
0
SPLINE
5
302
100
AcDbEntity
8
0
100
AcDbSpline
70
4
71
3
72
8
73
4
74
0
42
0.000000001
43
0.0000000001
44
0.0000000001
40
-1
40
-1
40
-1
40
-1
40
0
40
0
40
0
40
0
41
1
41
1
41
1
41
1
10
-118.07501061401354
20
-62.938967301940956
30
0
10
-130.22739210205066
20
-73.798750944519071
30
0
10
-137.35087705993641
20
-80.416442356872594
30
0
10
-145.0610128372191
20
-88.42425938262943
30
0
0
SPLINE
5
303
100
AcDbEntity
8
0
100
AcDbSpline
70
4
71
3
72
8
73
4
74
0
42
0.000000001
43
0.0000000001
44
0.0000000001
40
-1
40
-1
40
-1
40
-1
40
0
40
0
40
0
40
0
41
1
41
1
41
1
41
1
10
-145.0610128372191
20
-88.42425938262943
30
0
10
-144.53308517761224
20
-81.03845613403324
30
0
10
-144.99209378814683
20
-69.14148812561038
30
0
10
-145.97264149475086
20
-55.474619138336209
30
0
0
SPLINE
5
304
100
AcDbEntity
8
0
100
AcDbSpline
70
4
71
3
72
8
73
4
74
0
42
0.000000001
43
0.0000000001
44
0.0000000001
40
-1
40
-1
40
-1
40
-1
40
0
40
0
40
0
40
0
41
1
41
1
41
1
41
1
10
-145.97264149475086
20
-55.474619138336209
30
0
10
-142.19590341796868
20
-60.700550153350861
30
0
10
-130.22564976654039
20
-64.651037799072299
30
0
10
-118.07501061401354
20
-62.938967301940956
30
0
0
SPLINE
5
305
100
AcDbEntity
8
0
100
AcDbSpline
70
4
71
3
72
8
73
4
74
0
42
0.000000001
43
0.0000000001
44
0.0000000001
40
-1
40
-1
40
-1
40
-1
40
0
40
0
40
0
40
0
41
1
41
1
41
1
41
1
10
-225.00024797058097
20
-421.46259330444354
30
0
10
-228.56054925842275
20
-418.69731325683608
30
0
10
-229.8399827911376
20
-411.69316752624525
30
0
10
-229.66587830200186
20
-405.1724446136476
30
0
0
SPLINE
5
306
100
AcDbEntity
8
0
100
AcDbSpline
70
4
71
3
72
8
73
4
74
0
42
0.000000001
43
0.0000000001
44
0.0000000001
40
-1
40
-1
40
-1
40
-1
40
0
40
0
40
0
40
0
41
1
41
1
41
1
41
1
10
-229.66587830200186
20
-405.1724446136476
30
0
10
-229.47641544799797
20
-398.07683702392586
30
0
10
-227.56586927490224
20
-391.55361891479504
30
0
10
-225.00024797058097
20
-391.68737005310072
30
0
0
SPLINE
5
307
100
AcDbEntity
8
0
100
AcDbSpline
70
4
71
3
72
8
73
4
74
0
42
0.000000001
43
0.0000000001
44
0.0000000001
40
0
40
0
40
0
40
0
40
1
40
1
40
1
40
1
41
1
41
1
41
1
41
1
10
-225.00024797058097
20
-391.68737005310072
30
0
10
-222.43462666625965
20
-391.55361891479504
30
0
10
-220.52408049316398
20
-398.07683702392586
30
0
10
-220.33461763916006
20
-405.1724446136476
30
0
0
SPLINE
5
308
100
AcDbEntity
8
0
100
AcDbSpline
70
4
71
3
72
8
73
4
74
0
42
0.000000001
43
0.0000000001
44
0.0000000001
40
0
40
0
40
0
40
0
40
1
40
1
40
1
40
1
41
1
41
1
41
1
41
1
10
-220.33461763916006
20
-405.1724446136476
30
0
10
-220.16051315002431
20
-411.69316752624525
30
0
10
-221.43994668273916
20
-418.69731325683608
30
0
10
-225.00024797058097
20
-421.46259330444354
30
0
0
SPLINE
5
309
100
AcDbEntity
8
0
100
AcDbSpline
70
4
71
3
72
8
73
4
74
0
42
0.000000001
43
0.0000000001
44
0.0000000001
40
0
40
0
40
0
40
0
40
1
40
1
40
1
40
1
41
1
41
1
41
1
41
1
10
-333.74779618835447
20
-47.993794073486349
30
0
10
-339.6588845100402
20
-45.375494007873556
30
0
10
-342.36781828765862
20
-39.447073749923725
30
0
10
-340.97012104339598
20
-35.864186631393451
30
0
0
SPLINE
5
310
100
AcDbEntity
8
0
100
AcDbSpline
70
4
71
3
72
8
73
4
74
0
42
0.000000001
43
0.0000000001
44
0.0000000001
40
0
40
0
40
0
40
0
40
1
40
1
40
1
40
1
41
1
41
1
41
1
41
1
10
-340.97012104339598
20
-35.864186631393451
30
0
10
-337.8193761520385
20
-27.787488199615495
30
0
10
-324.3878730308532
20
-25.151108714294452
30
0
10
-318.53060351715084
20
-39.095460764312769
30
0
0
SPLINE
5
311
100
AcDbEntity
8
0
100
AcDbSpline
70
4
71
3
72
8
73
4
74
0
42
0.000000001
43
0.0000000001
44
0.0000000001
40
0
40
0
40
0
40
0
40
1
40
1
40
1
40
1
41
1
41
1
41
1
41
1
10
-318.53060351715084
20
-39.095460764312769
30
0
10
-315.55745854110711
20
-34.300913737869287
30
0
10
-310.10304496078487
20
-17.699505412292496
30
0
10
-320.39962402725212
20
-13.120448720932023
30
0
0
LINE
5
312
100
AcDbEntity
8
0
100
AcDbLine
10
-320.39962402725212
20
-13.120448720932016
30
0
11
-284.88832037658688
21
-13.120448720932023
31
0
0
SPLINE
5
313
100
AcDbEntity
8
0
100
AcDbSpline
70
4
71
3
72
8
73
4
74
0
42
0.000000001
43
0.0000000001
44
0.0000000001
40
0
40
0
40
0
40
0
40
1
40
1
40
1
40
1
41
1
41
1
41
1
41
1
10
-284.88832037658688
20
-13.120448720932023
30
0
10
-296.25699505004877
20
-23.620224977493301
30
0
10
-299.75259331054679
20
-30.204935699462911
30
0
10
-306.07666892395014
20
-39.242763401031517
30
0
0
SPLINE
5
314
100
AcDbEntity
8
0
100
AcDbSpline
70
4
71
3
72
8
73
4
74
0
42
0.000000001
43
0.0000000001
44
0.0000000001
40
0
40
0
40
0
40
0
40
1
40
1
40
1
40
1
41
1
41
1
41
1
41
1
10
-306.07666892395014
20
-39.242763401031517
30
0
10
-314.09067016525262
20
-51.104228634643576
30
0
10
-324.22508296737658
20
-51.279806580352805
30
0
10
-333.74779618835447
20
-47.993794073486349
30
0
0
SPLINE
5
315
100
AcDbEntity
8
0
100
AcDbSpline
70
4
71
3
72
8
73
4
74
0
42
0.000000001
43
0.0000000001
44
0.0000000001
40
-1
40
-1
40
-1
40
-1
40
0
40
0
40
0
40
0
41
1
41
1
41
1
41
1
10
-302.92970984802241
20
-98.078841589355505
30
0
10
-297.09708040008542
20
-104.19524586715703
30
0
10
-289.26399166259762
20
-108.96362021789555
30
0
10
-279.27995747222894
20
-105.34403650207524
30
0
0
SPLINE
5
316
100
AcDbEntity
8
0
100
AcDbSpline
70
4
71
3
72
8
73
4
74
0
42
0.000000001
43
0.0000000001
44
0.0000000001
40
-1
40
-1
40
-1
40
-1
40
0
40
0
40
0
40
0
41
1
41
1
41
1
41
1
10
-279.27995747222894
20
-105.34403650207524
30
0
10
-285.42500273437491
20
-117.33656408462529
30
0
10
-280.41540095672599
20
-125.48662882308963
30
0
10
-273.1424408203124
20
-126.12962591247563
30
0
0
SPLINE
5
317
100
AcDbEntity
8
0
100
AcDbSpline
70
4
71
3
72
8
73
4
74
0
42
0.000000001
43
0.0000000001
44
0.0000000001
40
-1
40
-1
40
-1
40
-1
40
0
40
0
40
0
40
0
41
1
41
1
41
1
41
1
10
-273.1424408203124
20
-126.12962591247563
30
0
10
-269.09054279479972
20
-116.48330366668705
30
0
10
-261.41398461914054
20
-114.77168488616948
30
0
10
-256.02365026702876
20
-117.30676154327398
30
0
0
SPLINE
5
318
100
AcDbEntity
8
0
100
AcDbSpline
70
4
71
3
72
8
73
4
74
0
42
0.000000001
43
0.0000000001
44
0.0000000001
40
-1
40
-1
40
-1
40
-1
40
0
40
0
40
0
40
0
41
1
41
1
41
1
41
1
10
-256.02365026702876
20
-117.30676154327398
30
0
10
-247.58616470031728
20
-121.41728593215947
30
0
10
-247.91342263183589
20
-132.49468943099981
30
0
10
-256.44256365051262
20
-137.25200747985843
30
0
0
SPLINE
5
319
100
AcDbEntity
8
0
100
AcDbSpline
70
4
71
3
72
8
73
4
74
0
42
0.000000001
43
0.0000000001
44
0.0000000001
40
-1
40
-1
40
-1
40
-1
40
0
40
0
40
0
40
0
41
1
41
1
41
1
41
1
10
-256.44256365051262
20
-137.25200747985843
30
0
10
-265.96526611633294
20
-144.9861057479859
30
0
10
-284.40278954772941
20
-141.99339714050296
30
0
10
-292.41678003387443
20
-130.13194266204837
30
0
0
SPLINE
5
320
100
AcDbEntity
8
0
100
AcDbSpline
70
4
71
3
72
8
73
4
74
0
42
0.000000001
43
0.0000000001
44
0.0000000001
40
-1
40
-1
40
-1
40
-1
40
0
40
0
40
0
40
0
41
1
41
1
41
1
41
1
10
-292.41678003387443
20
-130.13194266204837
30
0
10
-298.74085564727773
20
-121.09410420532231
30
0
10
-303.12605600280756
20
-117.62305996932987
30
0
10
-302.92970984802241
20
-98.078841589355505
30
0
0
SPLINE
5
321
100
AcDbEntity
8
0
100
AcDbSpline
70
4
71
3
72
8
73
4
74
0
42
0.000000001
43
0.0000000001
44
0.0000000001
40
0
40
0
40
0
40
0
40
1
40
1
40
1
40
1
41
1
41
1
41
1
41
1
10
-388.11970965499876
20
-148.47314290313727
30
0
10
-355.18749276580809
20
-143.31004351806644
30
0
10
-360.130079157257
20
-170.93548287353519
30
0
10
-389.04048019638054
20
-170.16457469635014
30
0
0
SPLINE
5
322
100
AcDbEntity
8
0
100
AcDbSpline
70
4
71
3
72
8
73
4
74
0
42
0.000000001
43
0.0000000001
44
0.0000000001
40
0
40
0
40
0
40
0
40
1
40
1
40
1
40
1
41
1
41
1
41
1
41
1
10
-389.04048019638054
20
-170.16457469635014
30
0
10
-402.97324894180292
20
-169.68517430725103
30
0
10
-415.5064490455627
20
-162.11543635559087
30
0
10
-422.39270749511718
20
-144.93299678039557
30
0
0
SPLINE
5
323
100
AcDbEntity
8
0
100
AcDbSpline
70
4
71
3
72
8
73
4
74
0
42
0.000000001
43
0.0000000001
44
0.0000000001
40
0
40
0
40
0
40
0
40
1
40
1
40
1
40
1
41
1
41
1
41
1
41
1
10
-422.39270749511718
20
-144.93299678039557
30
0
10
-429.21692481880189
20
-126.95407326354984
30
0
10
-424.09754514884946
20
-101.70799739532475
30
0
10
-417.78794059982295
20
-88.084503958129915
30
0
0
SPLINE
5
324
100
AcDbEntity
8
0
100
AcDbSpline
70
4
71
3
72
8
73
4
74
0
42
0.000000001
43
0.0000000001
44
0.0000000001
40
0
40
0
40
0
40
0
40
1
40
1
40
1
40
1
41
1
41
1
41
1
41
1
10
-417.78794059982295
20
-88.084503958129915
30
0
10
-401.05741123123164
20
-135.50904817047123
30
0
10
-346.65957783508298
20
-98.278446556854277
30
0
10
-322.63282492446888
20
-116.84876391754156
30
0
0
SPLINE
5
325
100
AcDbEntity
8
0
100
AcDbSpline
70
4
71
3
72
8
73
4
74
0
42
0.000000001
43
0.0000000001
44
0.0000000001
40
0
40
0
40
0
40
0
40
1
40
1
40
1
40
1
41
1
41
1
41
1
41
1
10
-322.63282492446888
20
-116.84876391754156
30
0
10
-333.69221353454583
20
-117.96754766311651
30
0
10
-345.93794978942867
20
-127.666580935669
30
0
10
-345.89430536041255
20
-139.15460559158331
30
0
0
SPLINE
5
326
100
AcDbEntity
8
0
100
AcDbSpline
70
4
71
3
72
8
73
4
74
0
42
0.000000001
43
0.0000000001
44
0.0000000001
40
0
40
0
40
0
40
0
40
1
40
1
40
1
40
1
41
1
41
1
41
1
41
1
10
-345.89430536041255
20
-139.15460559158331
30
0
10
-362.11199655532829
20
-120.90286675033575
30
0
10
-390.16321108474727
20
-127.94890381927495
30
0
10
-388.11970965499876
20
-148.47314290313727
30
0
0
LINE
5
327
100
AcDbEntity
8
0
100
AcDbLine
10
-343.45081962432857
20
-437.18891361999522
30
0
11
-401.39031024284355
21
-437.18891361999522
31
0
0
SPLINE
5
328
100
AcDbEntity
8
0
100
AcDbSpline
70
4
71
3
72
8
73
4
74
0
42
0.000000001
43
0.0000000001
44
0.0000000001
40
-1
40
-1
40
-1
40
-1
40
0
40
0
40
0
40
0
41
1
41
1
41
1
41
1
10
-401.39031024284355
20
-437.18891361999522
30
0
10
-391.09372579879761
20
-432.60988381652845
30
0
10
-390.56729310607909
20
-420.86787611694348
30
0
10
-393.54043808212276
20
-416.07335597839369
30
0
0
SPLINE
5
329
100
AcDbEntity
8
0
100
AcDbSpline
70
4
71
3
72
8
73
4
74
0
42
0.000000001
43
0.0000000001
44
0.0000000001
40
-1
40
-1
40
-1
40
-1
40
0
40
0
40
0
40
0
41
1
41
1
41
1
41
1
10
-393.54043808212276
20
-416.07335597839369
30
0
10
-403.26034711532589
20
-425.28286825866712
30
0
10
-411.47739497451778
20
-422.28110380859391
30
0
10
-413.86173809967039
20
-416.93721022644058
30
0
0
SPLINE
5
330
100
AcDbEntity
8
0
100
AcDbSpline
70
4
71
3
72
8
73
4
74
0
42
0.000000001
43
0.0000000001
44
0.0000000001
40
-1
40
-1
40
-1
40
-1
40
0
40
0
40
0
40
0
41
1
41
1
41
1
41
1
10
-413.86173809967039
20
-416.93721022644058
30
0
10
-415.6607855552673
20
-412.90510169067397
30
0
10
-413.44162013854975
20
-407.32498182983414
30
0
10
-409.97558242835993
20
-405.86107583618178
30
0
0
SPLINE
5
331
100
AcDbEntity
8
0
100
AcDbSpline
70
4
71
3
72
8
73
4
74
0
42
0.000000001
43
0.0000000001
44
0.0000000001
40
-1
40
-1
40
-1
40
-1
40
0
40
0
40
0
40
0
41
1
41
1
41
1
41
1
10
-409.97558242835993
20
-405.86107583618178
30
0
10
-404.27407448272703
20
-402.99052430725112
30
0
10
-397.03634824218744
20
-406.30586612854017
30
0
10
-390.55618302841185
20
-408.8237775543214
30
0
0
SPLINE
5
332
100
AcDbEntity
8
0
100
AcDbSpline
70
4
71
3
72
8
73
4
74
0
42
0.000000001
43
0.0000000001
44
0.0000000001
40
-1
40
-1
40
-1
40
-1
40
0
40
0
40
0
40
0
41
1
41
1
41
1
41
1
10
-390.55618302841185
20
-408.8237775543214
30
0
10
-376.45684915924062
20
-413.453184515381
30
0
10
-369.71961417160031
20
-413.55109946899427
30
0
10
-359.15055319061275
20
-406.72828569335945
30
0
0
SPLINE
5
333
100
AcDbEntity
8
0
100
AcDbSpline
70
4
71
3
72
8
73
4
74
0
42
0.000000001
43
0.0000000001
44
0.0000000001
40
-1
40
-1
40
-1
40
-1
40
0
40
0
40
0
40
0
41
1
41
1
41
1
41
1
10
-359.15055319061275
20
-406.72828569335945
30
0
10
-360.13643545532216
20
-417.15115181884778
30
0
10
-356.95326376419064
20
-433.36631555175791
30
0
10
-343.45081962432857
20
-437.18891361999522
30
0
0
LINE
5
334
100
AcDbEntity
8
0
100
AcDbLine
10
-437.03109523429868
20
-437.18895664062518
30
0
11
-437.03109523429868
21
-361.75365880126969
31
0
0
SPLINE
5
335
100
AcDbEntity
8
0
100
AcDbSpline
70
4
71
3
72
8
73
4
74
0
42
0.000000001
43
0.0000000001
44
0.0000000001
40
-1
40
-1
40
-1
40
-1
40
0
40
0
40
0
40
0
41
1
41
1
41
1
41
1
10
-437.03109523429868
20
-361.75365880126969
30
0
10
-434.82913269195558
20
-361.81380164184583
30
0
10
-433.60909451637264
20
-362.25416080932627
30
0
10
-431.74579037246701
20
-365.57823581848152
30
0
0
SPLINE
5
336
100
AcDbEntity
8
0
100
AcDbSpline
70
4
71
3
72
8
73
4
74
0
42
0.000000001
43
0.0000000001
44
0.0000000001
40
-1
40
-1
40
-1
40
-1
40
0
40
0
40
0
40
0
41
1
41
1
41
1
41
1
10
-431.74579037246701
20
-365.57823581848152
30
0
10
-426.34546447906484
20
-375.21227567443862
30
0
10
-422.46357322769165
20
-383.03734106445324
30
0
10
-415.91552145996093
20
-387.0993489379884
30
0
0
SPLINE
5
337
100
AcDbEntity
8
0
100
AcDbSpline
70
4
71
3
72
8
73
4
74
0
42
0.000000001
43
0.0000000001
44
0.0000000001
40
-1
40
-1
40
-1
40
-1
40
0
40
0
40
0
40
0
41
1
41
1
41
1
41
1
10
-415.91552145996093
20
-387.0993489379884
30
0
10
-449.12248422431946
20
-411.84937543334973
30
0
10
-423.96937593727108
20
-437.18895664062518
30
0
10
-413.98391668853753
20
-437.18895664062518
30
0
0
LINE
5
338
100
AcDbEntity
8
0
100
AcDbLine
10
-413.98391668853753
20
-437.18895664062518
30
0
11
-437.03109523429868
21
-437.18895664062518
31
0
0
SPLINE
5
339
100
AcDbEntity
8
0
100
AcDbSpline
70
4
71
3
72
8
73
4
74
0
42
0.000000001
43
0.0000000001
44
0.0000000001
40
-1
40
-1
40
-1
40
-1
40
0
40
0
40
0
40
0
41
1
41
1
41
1
41
1
10
-234.02522325897209
20
-288.8141812942506
30
0
10
-233.60060964202873
20
-297.55616687927261
30
0
10
-229.73202252044669
20
-298.57672377166756
30
0
10
-230.37556812286368
20
-308.61339370269781
30
0
0
SPLINE
5
340
100
AcDbEntity
8
0
100
AcDbSpline
70
4
71
3
72
8
73
4
74
0
42
0.000000001
43
0.0000000001
44
0.0000000001
40
-1
40
-1
40
-1
40
-1
40
0
40
0
40
0
40
0
41
1
41
1
41
1
41
1
10
-230.37556812286368
20
-308.61339370269781
30
0
10
-238.52677290801992
20
-302.47456492156994
30
0
10
-255.88867304077141
20
-291.77159147491466
30
0
10
-267.31366171874993
20
-292.14569887237559
30
0
0
SPLINE
5
341
100
AcDbEntity
8
0
100
AcDbSpline
70
4
71
3
72
8
73
4
74
0
42
0.000000001
43
0.0000000001
44
0.0000000001
40
-1
40
-1
40
-1
40
-1
40
0
40
0
40
0
40
0
41
1
41
1
41
1
41
1
10
-267.31366171874993
20
-292.14569887237559
30
0
10
-291.89468166961666
20
-292.95059334716802
30
0
10
-296.44893159027094
20
-314.28977222290052
30
0
10
-316.92102967071526
20
-317.11145231628427
30
0
0
SPLINE
5
342
100
AcDbEntity
8
0
100
AcDbSpline
70
4
71
3
72
8
73
4
74
0
42
0.000000001
43
0.0000000001
44
0.0000000001
40
-1
40
-1
40
-1
40
-1
40
0
40
0
40
0
40
0
41
1
41
1
41
1
41
1
10
-316.92102967071526
20
-317.11145231628427
30
0
10
-337.36072246170039
20
-314.2967415649415
30
0
10
-336.20195104064931
20
-305.60618714294441
30
0
10
-333.42410896911616
20
-299.61294017333989
30
0
0
SPLINE
5
343
100
AcDbEntity
8
0
100
AcDbSpline
70
4
71
3
72
8
73
4
74
0
42
0.000000001
43
0.0000000001
44
0.0000000001
40
-1
40
-1
40
-1
40
-1
40
0
40
0
40
0
40
0
41
1
41
1
41
1
41
1
10
-333.42410896911616
20
-299.61294017333989
30
0
10
-329.30915345535266
20
-294.3175093307496
30
0
10
-319.5985368782043
20
-296.50013947753911
30
0
10
-315.39706687774651
20
-300.93152247924814
30
0
0
SPLINE
5
344
100
AcDbEntity
8
0
100
AcDbSpline
70
4
71
3
72
8
73
4
74
0
42
0.000000001
43
0.0000000001
44
0.0000000001
40
-1
40
-1
40
-1
40
-1
40
0
40
0
40
0
40
0
41
1
41
1
41
1
41
1
10
-315.39706687774651
20
-300.93152247924814
30
0
10
-309.84414681015005
20
-310.03458021087658
30
0
10
-297.98300423126216
20
-298.17342687683117
30
0
10
-306.07851881103511
20
-284.96759922485359
30
0
0
SPLINE
5
345
100
AcDbEntity
8
0
100
AcDbSpline
70
4
71
3
72
8
73
4
74
0
42
0.000000001
43
0.0000000001
44
0.0000000001
40
-1
40
-1
40
-1
40
-1
40
0
40
0
40
0
40
0
41
1
41
1
41
1
41
1
10
-306.07851881103511
20
-284.96759922485359
30
0
10
-290.6912010589599
20
-282.25762219696048
30
0
10
-280.76784746704095
20
-251.76410499877937
30
0
10
-305.96259972381586
20
-233.20528490142831
30
0
0
SPLINE
5
346
100
AcDbEntity
8
0
100
AcDbSpline
70
4
71
3
72
8
73
4
74
0
42
0.000000001
43
0.0000000001
44
0.0000000001
40
-1
40
-1
40
-1
40
-1
40
0
40
0
40
0
40
0
41
1
41
1
41
1
41
1
10
-305.96259972381586
20
-233.20528490142831
30
0
10
-299.70752920074455
20
-229.99336467437752
30
0
10
-293.03707298583976
20
-227.83837528228764
30
0
10
-288.03183780212396
20
-239.436715588379
30
0
0
SPLINE
5
347
100
AcDbEntity
8
0
100
AcDbSpline
70
4
71
3
72
8
73
4
74
0
42
0.000000001
43
0.0000000001
44
0.0000000001
40
-1
40
-1
40
-1
40
-1
40
0
40
0
40
0
40
0
41
1
41
1
41
1
41
1
10
-288.03183780212396
20
-239.436715588379
30
0
10
-288.56464830322261
20
-244.20867140655525
30
0
10
-288.63470739898673
20
-251.6005835845948
30
0
10
-275.73301408996576
20
-244.17913774414072
30
0
0
SPLINE
5
348
100
AcDbEntity
8
0
100
AcDbSpline
70
4
71
3
72
8
73
4
74
0
42
0.000000001
43
0.0000000001
44
0.0000000001
40
-1
40
-1
40
-1
40
-1
40
0
40
0
40
0
40
0
41
1
41
1
41
1
41
1
10
-275.73301408996576
20
-244.17913774414072
30
0
10
-267.11897185821522
20
-241.06754162597665
30
0
10
-261.44500249328604
20
-237.12908900146491
30
0
10
-256.60290153808586
20
-235.32723444976813
30
0
0
SPLINE
5
349
100
AcDbEntity
8
0
100
AcDbSpline
70
4
71
3
72
8
73
4
74
0
42
0.000000001
43
0.0000000001
44
0.0000000001
40
-1
40
-1
40
-1
40
-1
40
0
40
0
40
0
40
0
41
1
41
1
41
1
41
1
10
-256.60290153808586
20
-235.32723444976813
30
0
10
-247.7361991470336
20
-231.80752312622079
30
0
10
-242.23175257415764
20
-241.04041711883553
30
0
10
-252.67397798309318
20
-245.38754421691903
30
0
0
SPLINE
5
350
100
AcDbEntity
8
0
100
AcDbSpline
70
4
71
3
72
8
73
4
74
0
42
0.000000001
43
0.0000000001
44
0.0000000001
40
-1
40
-1
40
-1
40
-1
40
0
40
0
40
0
40
0
41
1
41
1
41
1
41
1
10
-252.67397798309318
20
-245.38754421691903
30
0
10
-263.3127646499633
20
-249.59250964355476
30
0
10
-300.70569385528557
20
-252.00665531005868
30
0
10
-276.1490020706176
20
-268.23554262390144
30
0
0
SPLINE
5
351
100
AcDbEntity
8
0
100
AcDbSpline
70
4
71
3
72
8
73
4
74
0
42
0.000000001
43
0.0000000001
44
0.0000000001
40
-1
40
-1
40
-1
40
-1
40
0
40
0
40
0
40
0
41
1
41
1
41
1
41
1
10
-276.1490020706176
20
-268.23554262390144
30
0
10
-283.87419506835931
20
-276.68746161193855
30
0
10
-286.23047798767084
20
-285.11337462921153
30
0
10
-285.23999251556393
20
-285.43039365081796
30
0
0
SPLINE
5
352
100
AcDbEntity
8
0
100
AcDbSpline
70
4
71
3
72
8
73
4
74
0
42
0.000000001
43
0.0000000001
44
0.0000000001
40
-1
40
-1
40
-1
40
-1
40
0
40
0
40
0
40
0
41
1
41
1
41
1
41
1
10
-285.23999251556393
20
-285.43039365081796
30
0
10
-276.50304034423823
20
-291.37769458770765
30
0
10
-270.99824960632316
20
-275.6673349258424
30
0
10
-266.27396064605705
20
-280.52855855102553
30
0
0
SPLINE
5
353
100
AcDbEntity
8
0
100
AcDbSpline
70
4
71
3
72
8
73
4
74
0
42
0.000000001
43
0.0000000001
44
0.0000000001
40
-1
40
-1
40
-1
40
-1
40
0
40
0
40
0
40
0
41
1
41
1
41
1
41
1
10
-266.27396064605705
20
-280.52855855102553
30
0
10
-249.81667680816642
20
-295.85177556457529
30
0
10
-247.93648168945305
20
-263.66449314727794
30
0
10
-240.04572379760734
20
-252.45353210296639
30
0
0
SPLINE
5
354
100
AcDbEntity
8
0
100
AcDbSpline
70
4
71
3
72
8
73
4
74
0
42
0.000000001
43
0.0000000001
44
0.0000000001
40
-1
40
-1
40
-1
40
-1
40
0
40
0
40
0
40
0
41
1
41
1
41
1
41
1
10
-240.04572379760734
20
-252.45353210296639
30
0
10
-236.35044528350821
20
-247.31650321960458
30
0
10
-231.65164604644764
20
-247.49794272613536
30
0
10
-232.49648517608634
20
-255.68741436157237
30
0
0
SPLINE
5
355
100
AcDbEntity
8
0
100
AcDbSpline
70
4
71
3
72
8
73
4
74
0
42
0.000000001
43
0.0000000001
44
0.0000000001
40
-1
40
-1
40
-1
40
-1
40
0
40
0
40
0
40
0
41
1
41
1
41
1
41
1
10
-232.49648517608634
20
-255.68741436157237
30
0
10
-232.90462189178459
20
-260.05523438262946
30
0
10
-234.96206200561514
20
-265.95865427703865
30
0
10
-240.03995903320305
20
-272.01974477996833
30
0
0
SPLINE
5
356
100
AcDbEntity
8
0
100
AcDbSpline
70
4
71
3
72
8
73
4
74
0
42
0.000000001
43
0.0000000001
44
0.0000000001
40
-1
40
-1
40
-1
40
-1
40
0
40
0
40
0
40
0
41
1
41
1
41
1
41
1
10
-240.03995903320305
20
-272.01974477996833
30
0
10
-252.35437772369377
20
-289.42612824401863
30
0
10
-238.12313184814445
20
-287.86875993194593
30
0
10
-234.02522325897209
20
-288.8141812942506
30
0
0
SPLINE
5
357
100
AcDbEntity
8
0
100
AcDbSpline
70
4
71
3
72
8
73
4
74
0
42
0.000000001
43
0.0000000001
44
0.0000000001
40
0
40
0
40
0
40
0
40
1
40
1
40
1
40
1
41
1
41
1
41
1
41
1
10
-225.00024797058097
20
-237.47452314910899
30
0
10
-231.80241184387199
20
-237.47452314910899
30
0
10
-237.31666712036122
20
-231.96026787261971
30
0
10
-237.31666712036122
20
-225.15810399932866
30
0
0
SPLINE
5
358
100
AcDbEntity
8
0
100
AcDbSpline
70
4
71
3
72
8
73
4
74
0
42
0.000000001
43
0.0000000001
44
0.0000000001
40
0
40
0
40
0
40
0
40
1
40
1
40
1
40
1
41
1
41
1
41
1
41
1
10
-237.31666712036122
20
-225.15810399932866
30
0
10
-237.31666712036122
20
-218.35591861572271
30
0
10
-231.80241184387199
20
-212.84168484954841
30
0
10
-225.00024797058097
20
-212.84168484954841
30
0
0
SPLINE
5
359
100
AcDbEntity
8
0
100
AcDbSpline
70
4
71
3
72
8
73
4
74
0
42
0.000000001
43
0.0000000001
44
0.0000000001
40
0
40
0
40
0
40
0
40
1
40
1
40
1
40
1
41
1
41
1
41
1
41
1
10
-225.00024797058097
20
-212.84168484954841
30
0
10
-218.198062586975
20
-212.84168484954841
30
0
10
-212.68382882080067
20
-218.35594012603767
30
0
10
-212.68382882080067
20
-225.15810399932866
30
0
0
SPLINE
5
360
100
AcDbEntity
8
0
100
AcDbSpline
70
4
71
3
72
8
73
4
74
0
42
0.000000001
43
0.0000000001
44
0.0000000001
40
0
40
0
40
0
40
0
40
1
40
1
40
1
40
1
41
1
41
1
41
1
41
1
10
-212.68382882080067
20
-225.15810399932866
30
0
10
-212.68382882080067
20
-231.96028938293466
30
0
10
-218.19808409728995
20
-237.47452314910899
30
0
10
-225.00024797058097
20
-237.47452314910899
30
0
0
SPLINE
5
361
100
AcDbEntity
8
0
100
AcDbSpline
70
4
71
3
72
8
73
4
74
0
42
0.000000001
43
0.0000000001
44
0.0000000001
40
-0.99751686591409361
40
-0.99751686591409361
40
-0.99751686591409361
40
-0.99751686591409361
40
0
40
0
40
0
40
0
41
1
41
1
41
1
41
1
10
-411.90305918380352
20
-225.15469461439187
30
0
10
-400.13319176562811
20
-218.8923709504152
30
0
10
-395.18850836246594
20
-204.94141253999004
30
0
10
-396.75403611373895
20
-193.4201290405274
30
0
0
SPLINE
5
362
100
AcDbEntity
8
0
100
AcDbSpline
70
4
71
3
72
8
73
4
74
0
42
0.000000001
43
0.0000000001
44
0.0000000001
40
-1
40
-1
40
-1
40
-1
40
-0.00037183744068489003
40
-0.00037183744068489003
40
-0.00037183744068489003
40
-0.00037183744068489003
41
1
41
1
41
1
41
1
10
-396.75403611373895
20
-193.4201290405274
30
0
10
-381.51077509636792
20
-211.86038674360262
30
0
10
-359.82092650716203
20
-222.09682088379211
30
0
10
-348.43879904129255
20
-225.15469461441043
30
0
0
SPLINE
5
363
100
AcDbEntity
8
0
100
AcDbSpline
70
4
71
3
72
8
73
4
74
0
42
0.000000001
43
0.0000000001
44
0.0000000001
40
0.00037183744068541093
40
0.00037183744068541093
40
0.00037183744068541093
40
0.00037183744068541093
40
1
40
1
40
1
40
1
41
1
41
1
41
1
41
1
10
-348.43879904129261
20
-225.15469461441054
30
0
10
-359.82092650716208
20
-228.21256834502887
30
0
10
-381.51077509636792
20
-238.44900248521836
30
0
10
-396.75403611373895
20
-256.88926018829352
30
0
0
SPLINE
5
364
100
AcDbEntity
8
0
100
AcDbSpline
70
4
71
3
72
8
73
4
74
0
42
0.000000001
43
0.0000000001
44
0.0000000001
40
0
40
0
40
0
40
0
40
0.99751686591409472
40
0.99751686591409472
40
0.99751686591409472
40
0.99751686591409472
41
1
41
1
41
1
41
1
10
-396.75403611373895
20
-256.88926018829352
30
0
10
-395.188508362466
20
-245.36797668883094
30
0
10
-400.133191765628
20
-231.41701827840575
30
0
10
-411.90305918380375
20
-225.15469461442902
30
0
0
SPLINE
5
365
100
AcDbEntity
8
0
100
AcDbSpline
70
4
71
3
72
8
73
4
74
0
42
0.000000001
43
0.0000000001
44
0.0000000001
40
0
40
0
40
0
40
0
40
1
40
1
40
1
40
1
41
1
41
1
41
1
41
1
10
-233.75750587921132
20
-333.605776916504
30
0
10
-221.69817801361074
20
-344.17826879272474
30
0
10
-235.58966846466058
20
-381.05619803771987
30
0
10
-248.94684269256584
20
-380.0943427947999
30
0
0
SPLINE
5
366
100
AcDbEntity
8
0
100
AcDbSpline
70
4
71
3
72
8
73
4
74
0
42
0.000000001
43
0.0000000001
44
0.0000000001
40
0
40
0
40
0
40
0
40
1
40
1
40
1
40
1
41
1
41
1
41
1
41
1
10
-248.94684269256584
20
-380.0943427947999
30
0
10
-254.74385105895988
20
-378.55902255554213
30
0
10
-256.29414247741693
20
-374.88570607299812
30
0
10
-254.65438965911858
20
-367.57189784851084
30
0
0
SPLINE
5
367
100
AcDbEntity
8
0
100
AcDbSpline
70
4
71
3
72
8
73
4
74
0
42
0.000000001
43
0.0000000001
44
0.0000000001
40
0
40
0
40
0
40
0
40
1
40
1
40
1
40
1
41
1
41
1
41
1
41
1
10
-254.65438965911858
20
-367.57189784851084
30
0
10
-257.81797620849602
20
-366.82277962036147
30
0
10
-259.44417752838126
20
-366.26127435913099
30
0
10
-263.13360523681632
20
-368.10651521606462
30
0
0
SPLINE
5
368
100
AcDbEntity
8
0
100
AcDbSpline
70
4
71
3
72
8
73
4
74
0
42
0.000000001
43
0.0000000001
44
0.0000000001
40
0
40
0
40
0
40
0
40
1
40
1
40
1
40
1
41
1
41
1
41
1
41
1
10
-263.13360523681632
20
-368.10651521606462
30
0
10
-261.88632962493887
20
-360.79133033142102
30
0
10
-263.24451242065425
20
-354.88575940551766
30
0
10
-269.50917654418936
20
-350.53581445617687
30
0
0
SPLINE
5
369
100
AcDbEntity
8
0
100
AcDbSpline
70
4
71
3
72
8
73
4
74
0
42
0.000000001
43
0.0000000001
44
0.0000000001
40
0
40
0
40
0
40
0
40
1
40
1
40
1
40
1
41
1
41
1
41
1
41
1
10
-269.50917654418936
20
-350.53581445617687
30
0
10
-253.67169092102043
20
-354.1944609039308
30
0
10
-243.67679402160636
20
-343.75275174255376
30
0
10
-239.97667568664542
20
-334.95331210632338
30
0
0
SPLINE
5
370
100
AcDbEntity
8
0
100
AcDbSpline
70
4
71
3
72
8
73
4
74
0
42
0.000000001
43
0.0000000001
44
0.0000000001
40
0
40
0
40
0
40
0
40
1
40
1
40
1
40
1
41
1
41
1
41
1
41
1
10
-239.97667568664542
20
-334.95331210632338
30
0
10
-238.72092501068107
20
-332.13911760253916
30
0
10
-235.11545206146229
20
-332.38528164672863
30
0
10
-233.75750587921132
20
-333.605776916504
30
0
0
SPLINE
5
371
100
AcDbEntity
8
0
100
AcDbSpline
70
4
71
3
72
8
73
4
74
0
42
0.000000001
43
0.0000000001
44
0.0000000001
40
0
40
0
40
0
40
0
40
1
40
1
40
1
40
1
41
1
41
1
41
1
41
1
10
-333.42410896911616
20
-150.73583444213875
30
0
10
-336.20195104064931
20
-144.74258747253424
30
0
10
-337.36072246170039
20
-136.05204380569464
30
0
10
-316.92102967071526
20
-133.2373222991944
30
0
0
SPLINE
5
372
100
AcDbEntity
8
0
100
AcDbSpline
70
4
71
3
72
8
73
4
74
0
42
0.000000001
43
0.0000000001
44
0.0000000001
40
0
40
0
40
0
40
0
40
1
40
1
40
1
40
1
41
1
41
1
41
1
41
1
10
-316.92102967071526
20
-133.2373222991944
30
0
10
-296.44893159027094
20
-136.05899163742069
30
0
10
-291.89468166961666
20
-157.39818126831062
30
0
10
-267.31366171874993
20
-158.20307574310308
30
0
0
SPLINE
5
373
100
AcDbEntity
8
0
100
AcDbSpline
70
4
71
3
72
8
73
4
74
0
42
0.000000001
43
0.0000000001
44
0.0000000001
40
0
40
0
40
0
40
0
40
1
40
1
40
1
40
1
41
1
41
1
41
1
41
1
10
-267.31366171874993
20
-158.20307574310308
30
0
10
-255.88867304077141
20
-158.57718314056402
30
0
10
-238.52677290801992
20
-147.87420969390877
30
0
10
-230.37556812286368
20
-141.73535940246586
30
0
0
SPLINE
5
374
100
AcDbEntity
8
0
100
AcDbSpline
70
4
71
3
72
8
73
4
74
0
42
0.000000001
43
0.0000000001
44
0.0000000001
40
0
40
0
40
0
40
0
40
1
40
1
40
1
40
1
41
1
41
1
41
1
41
1
10
-230.37556812286368
20
-141.73535940246586
30
0
10
-229.73202252044669
20
-151.77202933349616
30
0
10
-233.60060964202873
20
-152.79258622589117
30
0
10
-234.02522325897209
20
-161.53457181091315
30
0
0
SPLINE
5
375
100
AcDbEntity
8
0
100
AcDbSpline
70
4
71
3
72
8
73
4
74
0
42
0.000000001
43
0.0000000001
44
0.0000000001
40
0
40
0
40
0
40
0
40
1
40
1
40
1
40
1
41
1
41
1
41
1
41
1
10
-234.02522325897209
20
-161.53457181091315
30
0
10
-238.12313184814445
20
-162.47999317321782
30
0
10
-252.35437772369377
20
-160.92262486114507
30
0
10
-240.03995903320305
20
-178.32900832519539
30
0
0
SPLINE
5
376
100
AcDbEntity
8
0
100
AcDbSpline
70
4
71
3
72
8
73
4
74
0
42
0.000000001
43
0.0000000001
44
0.0000000001
40
0
40
0
40
0
40
0
40
1
40
1
40
1
40
1
41
1
41
1
41
1
41
1
10
-240.03995903320305
20
-178.32900832519539
30
0
10
-234.96206200561514
20
-184.39009882812508
30
0
10
-232.90462189178459
20
-190.29351872253426
30
0
10
-232.49648517608634
20
-194.66133874359139
30
0
0
SPLINE
5
377
100
AcDbEntity
8
0
100
AcDbSpline
70
4
71
3
72
8
73
4
74
0
42
0.000000001
43
0.0000000001
44
0.0000000001
40
0
40
0
40
0
40
0
40
1
40
1
40
1
40
1
41
1
41
1
41
1
41
1
10
-232.49648517608634
20
-194.66133874359139
30
0
10
-231.65164604644764
20
-202.85081037902839
30
0
10
-236.35044528350821
20
-203.03224988555914
30
0
10
-240.04572379760734
20
-197.89522100219733
30
0
0
SPLINE
5
378
100
AcDbEntity
8
0
100
AcDbSpline
70
4
71
3
72
8
73
4
74
0
42
0.000000001
43
0.0000000001
44
0.0000000001
40
0
40
0
40
0
40
0
40
1
40
1
40
1
40
1
41
1
41
1
41
1
41
1
10
-240.04572379760734
20
-197.89522100219733
30
0
10
-247.93648168945305
20
-186.68425995788581
30
0
10
-249.81667680816642
20
-154.49697754058843
30
0
10
-266.27396064605705
20
-169.82019455413823
30
0
0
SPLINE
5
379
100
AcDbEntity
8
0
100
AcDbSpline
70
4
71
3
72
8
73
4
74
0
42
0.000000001
43
0.0000000001
44
0.0000000001
40
0
40
0
40
0
40
0
40
1
40
1
40
1
40
1
41
1
41
1
41
1
41
1
10
-266.27396064605705
20
-169.82019455413823
30
0
10
-270.99824960632316
20
-174.68141817932135
30
0
10
-276.50304034423823
20
-158.9710585174561
30
0
10
-285.23999251556393
20
-164.91835945434576
30
0
0
SPLINE
5
380
100
AcDbEntity
8
0
100
AcDbSpline
70
4
71
3
72
8
73
4
74
0
42
0.000000001
43
0.0000000001
44
0.0000000001
40
0
40
0
40
0
40
0
40
1
40
1
40
1
40
1
41
1
41
1
41
1
41
1
10
-285.23999251556393
20
-164.91835945434576
30
0
10
-286.23047798767084
20
-165.23537847595222
30
0
10
-283.87419506835931
20
-173.66129149322515
30
0
10
-276.1490020706176
20
-182.11321048126226
30
0
0
SPLINE
5
381
100
AcDbEntity
8
0
100
AcDbSpline
70
4
71
3
72
8
73
4
74
0
42
0.000000001
43
0.0000000001
44
0.0000000001
40
0
40
0
40
0
40
0
40
1
40
1
40
1
40
1
41
1
41
1
41
1
41
1
10
-276.1490020706176
20
-182.11321048126226
30
0
10
-300.70569385528557
20
-198.34209779510505
30
0
10
-263.3127646499633
20
-200.75624346160896
30
0
10
-252.67397798309318
20
-204.9612088882447
30
0
0
SPLINE
5
382
100
AcDbEntity
8
0
100
AcDbSpline
70
4
71
3
72
8
73
4
74
0
42
0.000000001
43
0.0000000001
44
0.0000000001
40
0
40
0
40
0
40
0
40
1
40
1
40
1
40
1
41
1
41
1
41
1
41
1
10
-252.67397798309318
20
-204.9612088882447
30
0
10
-242.23175257415764
20
-209.30833598632819
30
0
10
-247.7361991470336
20
-218.54122997894294
30
0
10
-256.60290153808586
20
-215.0215186553956
30
0
0
SPLINE
5
383
100
AcDbEntity
8
0
100
AcDbSpline
70
4
71
3
72
8
73
4
74
0
42
0.000000001
43
0.0000000001
44
0.0000000001
40
0
40
0
40
0
40
0
40
1
40
1
40
1
40
1
41
1
41
1
41
1
41
1
10
-256.60290153808586
20
-215.0215186553956
30
0
10
-261.44500249328604
20
-213.21966410369882
30
0
10
-267.11897185821522
20
-209.28121147918711
30
0
10
-275.73301408996576
20
-206.16961536102303
30
0
0
SPLINE
5
384
100
AcDbEntity
8
0
100
AcDbSpline
70
4
71
3
72
8
73
4
74
0
42
0.000000001
43
0.0000000001
44
0.0000000001
40
0
40
0
40
0
40
0
40
1
40
1
40
1
40
1
41
1
41
1
41
1
41
1
10
-275.73301408996576
20
-206.16961536102303
30
0
10
-288.63470739898673
20
-198.74816952056892
30
0
10
-288.56464830322261
20
-206.14008169860847
30
0
10
-288.03183780212396
20
-210.91203751678475
30
0
0
SPLINE
5
385
100
AcDbEntity
8
0
100
AcDbSpline
70
4
71
3
72
8
73
4
74
0
42
0.000000001
43
0.0000000001
44
0.0000000001
40
0
40
0
40
0
40
0
40
1
40
1
40
1
40
1
41
1
41
1
41
1
41
1
10
-288.03183780212396
20
-210.91203751678475
30
0
10
-293.03707298583976
20
-222.51037782287602
30
0
10
-299.70752920074455
20
-220.35538843078621
30
0
10
-305.96259972381586
20
-217.14346820373544
30
0
0
SPLINE
5
386
100
AcDbEntity
8
0
100
AcDbSpline
70
4
71
3
72
8
73
4
74
0
42
0.000000001
43
0.0000000001
44
0.0000000001
40
0
40
0
40
0
40
0
40
1
40
1
40
1
40
1
41
1
41
1
41
1
41
1
10
-305.96259972381586
20
-217.14346820373544
30
0
10
-280.76784746704095
20
-198.58464810638435
30
0
10
-290.6912010589599
20
-168.09113090820318
30
0
10
-306.07851881103511
20
-165.38117539062506
30
0
0
SPLINE
5
387
100
AcDbEntity
8
0
100
AcDbSpline
70
4
71
3
72
8
73
4
74
0
42
0.000000001
43
0.0000000001
44
0.0000000001
40
0
40
0
40
0
40
0
40
1
40
1
40
1
40
1
41
1
41
1
41
1
41
1
10
-306.07851881103511
20
-165.38117539062506
30
0
10
-297.98300423126216
20
-152.17534773864753
30
0
10
-309.84414681015005
20
-140.31419440460209
30
0
10
-315.39706687774651
20
-149.4172521362305
30
0
0
SPLINE
5
388
100
AcDbEntity
8
0
100
AcDbSpline
70
4
71
3
72
8
73
4
74
0
42
0.000000001
43
0.0000000001
44
0.0000000001
40
0
40
0
40
0
40
0
40
1
40
1
40
1
40
1
41
1
41
1
41
1
41
1
10
-315.39706687774651
20
-149.4172521362305
30
0
10
-319.5985368782043
20
-153.84863513793954
30
0
10
-329.30915345535266
20
-156.03126528472905
30
0
10
-333.42410896911616
20
-150.73583444213875
30
0
0
SPLINE
5
389
100
AcDbEntity
8
0
100
AcDbSpline
70
4
71
3
72
8
73
4
74
0
42
0.000000001
43
0.0000000001
44
0.0000000001
40
0
40
0
40
0
40
0
40
1
40
1
40
1
40
1
41
1
41
1
41
1
41
1
10
-360.09679194488518
20
-96.578841287231484
30
0
10
-370.31096499481191
20
-97.939605320739787
30
0
10
-382.83843259963987
20
-105.33955160140994
30
0
10
-394.674720009613
20
-98.253892532348672
30
0
0
SPLINE
5
390
100
AcDbEntity
8
0
100
AcDbSpline
70
4
71
3
72
8
73
4
74
0
42
0.000000001
43
0.0000000001
44
0.0000000001
40
0
40
0
40
0
40
0
40
1
40
1
40
1
40
1
41
1
41
1
41
1
41
1
10
-394.674720009613
20
-98.253892532348672
30
0
10
-410.83153163566584
20
-88.581800929260282
30
0
10
-395.19353805084222
20
-67.964357650756867
30
0
10
-383.10132091369621
20
-86.959643548584026
30
0
0
SPLINE
5
391
100
AcDbEntity
8
0
100
AcDbSpline
70
4
71
3
72
8
73
4
74
0
42
0.000000001
43
0.0000000001
44
0.0000000001
40
0
40
0
40
0
40
0
40
1
40
1
40
1
40
1
41
1
41
1
41
1
41
1
10
-383.10132091369621
20
-86.959643548584026
30
0
10
-372.72629372863764
20
-77.432068996429479
30
0
10
-373.09287251586909
20
-61.082164650726355
30
0
10
-394.21310865097041
20
-59.76504504623415
30
0
0
SPLINE
5
392
100
AcDbEntity
8
0
100
AcDbSpline
70
4
71
3
72
8
73
4
74
0
42
0.000000001
43
0.0000000001
44
0.0000000001
40
0
40
0
40
0
40
0
40
1
40
1
40
1
40
1
41
1
41
1
41
1
41
1
10
-394.21310865097041
20
-59.76504504623415
30
0
10
-386.08220960311883
20
-51.736836241912876
30
0
10
-368.89999588623039
20
-49.497811426925686
30
0
10
-344.87324297561645
20
-68.068123410034218
30
0
0
SPLINE
5
393
100
AcDbEntity
8
0
100
AcDbSpline
70
4
71
3
72
8
73
4
74
0
42
0.000000001
43
0.0000000001
44
0.0000000001
40
0
40
0
40
0
40
0
40
1
40
1
40
1
40
1
41
1
41
1
41
1
41
1
10
-344.87324297561645
20
-68.068123410034218
30
0
10
-330.14650699539175
20
-78.948029952240034
30
0
10
-321.20901415786733
20
-90.965229866027869
30
0
10
-315.49907954635614
20
-105.34916671218878
30
0
0
SPLINE
5
394
100
AcDbEntity
8
0
100
AcDbSpline
70
4
71
3
72
8
73
4
74
0
42
0.000000001
43
0.0000000001
44
0.0000000001
40
0
40
0
40
0
40
0
40
1
40
1
40
1
40
1
41
1
41
1
41
1
41
1
10
-315.49907954635614
20
-105.34916671218878
30
0
10
-336.59629964447015
20
-91.60161253356938
30
0
10
-350.63538312149041
20
-93.736059574890177
30
0
10
-360.09679194488518
20
-96.578841287231484
30
0
0
SPLINE
5
395
100
AcDbEntity
8
0
100
AcDbSpline
70
4
71
3
72
8
73
4
74
0
42
0.000000001
43
0.0000000001
44
0.0000000001
40
0
40
0
40
0
40
0
40
1
40
1
40
1
40
1
41
1
41
1
41
1
41
1
10
-267.1169068679809
20
-72.574459104156531
30
0
10
-269.28383448486323
20
-72.137831976318395
30
0
10
-270.98517133483875
20
-71.551073605346716
30
0
10
-272.91748594665523
20
-71.865834043884306
30
0
0
SPLINE
5
396
100
AcDbEntity
8
0
100
AcDbSpline
70
4
71
3
72
8
73
4
74
0
42
0.000000001
43
0.0000000001
44
0.0000000001
40
0
40
0
40
0
40
0
40
1
40
1
40
1
40
1
41
1
41
1
41
1
41
1
10
-272.91748594665523
20
-71.865834043884306
30
0
10
-274.43278008270255
20
-81.708502444458034
30
0
10
-279.84600140991205
20
-84.48630149536136
30
0
10
-284.81275464019768
20
-83.15686723556523
30
0
0
SPLINE
5
397
100
AcDbEntity
8
0
100
AcDbSpline
70
4
71
3
72
8
73
4
74
0
42
0.000000001
43
0.0000000001
44
0.0000000001
40
0
40
0
40
0
40
0
40
1
40
1
40
1
40
1
41
1
41
1
41
1
41
1
10
-284.81275464019768
20
-83.15686723556523
30
0
10
-295.17855390014643
20
-80.035182779693642
30
0
10
-295.45648867950433
20
-67.689541867065458
30
0
10
-294.52889936828603
20
-56.666667016601586
30
0
0
SPLINE
5
398
100
AcDbEntity
8
0
100
AcDbSpline
70
4
71
3
72
8
73
4
74
0
42
0.000000001
43
0.0000000001
44
0.0000000001
40
0
40
0
40
0
40
0
40
1
40
1
40
1
40
1
41
1
41
1
41
1
41
1
10
-294.52889936828603
20
-56.666667016601586
30
0
10
-293.59550227203363
20
-48.609736564254789
30
0
10
-289.77391518859855
20
-39.811904824066183
30
0
10
-279.5863934188842
20
-32.988553290557888
30
0
0
SPLINE
5
399
100
AcDbEntity
8
0
100
AcDbSpline
70
4
71
3
72
8
73
4
74
0
42
0.000000001
43
0.0000000001
44
0.0000000001
40
0
40
0
40
0
40
0
40
1
40
1
40
1
40
1
41
1
41
1
41
1
41
1
10
-279.5863934188842
20
-32.988553290557888
30
0
10
-261.35633697509758
20
-24.46618264350893
30
0
10
-241.53615200958242
20
-36.432908603286762
30
0
10
-236.86183151092521
20
-59.329633251190202
30
0
0
SPLINE
5
400
100
AcDbEntity
8
0
100
AcDbSpline
70
4
71
3
72
8
73
4
74
0
42
0.000000001
43
0.0000000001
44
0.0000000001
40
0
40
0
40
0
40
0
40
1
40
1
40
1
40
1
41
1
41
1
41
1
41
1
10
-236.86183151092521
20
-59.329633251190202
30
0
10
-244.20360314483634
20
-59.546209857177757
30
0
10
-246.77339745025625
20
-52.125043650817901
30
0
10
-258.66217002868643
20
-56.871896931457542
30
0
0
SPLINE
5
401
100
AcDbEntity
8
0
100
AcDbSpline
70
4
71
3
72
8
73
4
74
0
42
0.000000001
43
0.0000000001
44
0.0000000001
40
0
40
0
40
0
40
0
40
1
40
1
40
1
40
1
41
1
41
1
41
1
41
1
10
-258.66217002868643
20
-56.871896931457542
30
0
10
-262.93315061187735
20
-58.577180924224876
30
0
10
-265.52714402160638
20
-65.175545318603554
30
0
10
-267.1169068679809
20
-72.574459104156531
30
0
0
SPLINE
5
402
100
AcDbEntity
8
0
100
AcDbSpline
70
4
71
3
72
8
73
4
74
0
42
0.000000001
43
0.0000000001
44
0.0000000001
40
0
40
0
40
0
40
0
40
1
40
1
40
1
40
1
41
1
41
1
41
1
41
1
10
-409.97558242835993
20
-44.448286504745496
30
0
10
-413.44162013854975
20
-42.984375133514433
30
0
10
-415.6607855552673
20
-37.404249895095845
30
0
10
-413.86173809967039
20
-33.372168247222916
30
0
0
SPLINE
5
403
100
AcDbEntity
8
0
100
AcDbSpline
70
4
71
3
72
8
73
4
74
0
42
0.000000001
43
0.0000000001
44
0.0000000001
40
0
40
0
40
0
40
0
40
1
40
1
40
1
40
1
41
1
41
1
41
1
41
1
10
-413.86173809967039
20
-33.372168247222916
30
0
10
-411.47739497451778
20
-28.028263909912134
30
0
10
-403.26034711532589
20
-25.026504837417622
30
0
10
-393.54043808212276
20
-34.236017117691063
30
0
0
SPLINE
5
404
100
AcDbEntity
8
0
100
AcDbSpline
70
4
71
3
72
8
73
4
74
0
42
0.000000001
43
0.0000000001
44
0.0000000001
40
0
40
0
40
0
40
0
40
1
40
1
40
1
40
1
41
1
41
1
41
1
41
1
10
-393.54043808212276
20
-34.236017117691063
30
0
10
-390.56729310607909
20
-29.441475468826319
30
0
10
-391.09372579879761
20
-17.699500034713758
30
0
10
-401.39031024284355
20
-13.120448720932023
30
0
0
LINE
5
405
100
AcDbEntity
8
0
100
AcDbLine
10
-401.3903102428435
20
-13.120448720932021
30
0
11
-343.45081962432857
21
-13.120448720932023
31
0
0
SPLINE
5
406
100
AcDbEntity
8
0
100
AcDbSpline
70
4
71
3
72
8
73
4
74
0
42
0.000000001
43
0.0000000001
44
0.0000000001
40
0
40
0
40
0
40
0
40
1
40
1
40
1
40
1
41
1
41
1
41
1
41
1
10
-343.45081962432857
20
-13.120448720932023
30
0
10
-356.95326376419064
20
-16.943057544326798
30
0
10
-360.13643545532216
20
-33.158215899658224
30
0
10
-359.15055319061275
20
-43.581098157882714
30
0
0
SPLINE
5
407
100
AcDbEntity
8
0
100
AcDbSpline
70
4
71
3
72
8
73
4
74
0
42
0.000000001
43
0.0000000001
44
0.0000000001
40
0
40
0
40
0
40
0
40
1
40
1
40
1
40
1
41
1
41
1
41
1
41
1
10
-359.15055319061275
20
-43.581098157882714
30
0
10
-369.71961417160031
20
-36.758289759826681
30
0
10
-376.45684915924062
20
-36.856204713439958
30
0
10
-390.55618302841185
20
-41.485584786605862
30
0
0
SPLINE
5
408
100
AcDbEntity
8
0
100
AcDbSpline
70
4
71
3
72
8
73
4
74
0
42
0.000000001
43
0.0000000001
44
0.0000000001
40
0
40
0
40
0
40
0
40
1
40
1
40
1
40
1
41
1
41
1
41
1
41
1
10
-390.55618302841185
20
-41.485584786605862
30
0
10
-397.03634824218744
20
-44.003512345123319
30
0
10
-404.27407448272703
20
-47.318821900939966
30
0
10
-409.97558242835993
20
-44.448286504745496
30
0
0
SPLINE
5
409
100
AcDbEntity
8
0
100
AcDbSpline
70
4
71
3
72
8
73
4
74
0
42
0.000000001
43
0.0000000001
44
0.0000000001
40
-1
40
-1
40
-1
40
-1
40
0
40
0
40
0
40
0
41
1
41
1
41
1
41
1
10
-257.49424596862787
20
-437.18891361999522
30
0
10
-250.67956309204092
20
-433.14953459777848
30
0
10
-242.073393635559
20
-425.19742928771984
30
0
10
-238.66306226348868
20
-421.3411460662843
30
0
0
SPLINE
5
410
100
AcDbEntity
8
0
100
AcDbSpline
70
4
71
3
72
8
73
4
74
0
42
0.000000001
43
0.0000000001
44
0.0000000001
40
-1
40
-1
40
-1
40
-1
40
0
40
0
40
0
40
0
41
1
41
1
41
1
41
1
10
-238.66306226348868
20
-421.3411460662843
30
0
10
-235.48424641113272
20
-428.28213751220716
30
0
10
-231.02197459716788
20
-435.28624022216809
30
0
10
-225.00024797058097
20
-435.51145321960462
30
0
0
SPLINE
5
411
100
AcDbEntity
8
0
100
AcDbSpline
70
4
71
3
72
8
73
4
74
0
42
0.000000001
43
0.0000000001
44
0.0000000001
40
0
40
0
40
0
40
0
40
1
40
1
40
1
40
1
41
1
41
1
41
1
41
1
10
-225.00024797058097
20
-435.51145321960462
30
0
10
-218.97852134399403
20
-435.28624022216809
30
0
10
-214.5162495300292
20
-428.28213751220716
30
0
10
-211.33743367767323
20
-421.3411460662843
30
0
0
SPLINE
5
412
100
AcDbEntity
8
0
100
AcDbSpline
70
4
71
3
72
8
73
4
74
0
42
0.000000001
43
0.0000000001
44
0.0000000001
40
0
40
0
40
0
40
0
40
1
40
1
40
1
40
1
41
1
41
1
41
1
41
1
10
-211.33743367767323
20
-421.3411460662843
30
0
10
-207.92710230560292
20
-425.19742928771984
30
0
10
-199.32093284912099
20
-433.14953459777848
30
0
10
-192.50624997253408
20
-437.18891361999522
30
0
0
LINE
5
413
100
AcDbEntity
8
0
100
AcDbLine
10
-192.50624997253408
20
-437.18891361999516
30
0
11
-257.49424596862787
21
-437.18891361999522
31
0
0
SPLINE
5
414
100
AcDbEntity
8
0
100
AcDbSpline
70
4
71
3
72
8
73
4
74
0
42
0.000000001
43
0.0000000001
44
0.0000000001
40
-1
40
-1
40
-1
40
-1
40
0
40
0
40
0
40
0
41
1
41
1
41
1
41
1
10
-225.00024797058097
20
-28.84679592437746
30
0
10
-221.43994668273916
20
-31.612065216827414
30
0
10
-220.16051315002431
20
-38.616200192260763
30
0
10
-220.33461763916006
20
-45.136939237594632
30
0
0
SPLINE
5
415
100
AcDbEntity
8
0
100
AcDbSpline
70
4
71
3
72
8
73
4
74
0
42
0.000000001
43
0.0000000001
44
0.0000000001
40
-1
40
-1
40
-1
40
-1
40
0
40
0
40
0
40
0
41
1
41
1
41
1
41
1
10
-220.33461763916006
20
-45.136939237594632
30
0
10
-220.52408049316398
20
-52.232530694580106
30
0
10
-222.43462666625965
20
-58.755738048553496
30
0
10
-225.00024797058097
20
-58.622008420562764
30
0
0
SPLINE
5
416
100
AcDbEntity
8
0
100
AcDbSpline
70
4
71
3
72
8
73
4
74
0
42
0.000000001
43
0.0000000001
44
0.0000000001
40
0
40
0
40
0
40
0
40
1
40
1
40
1
40
1
41
1
41
1
41
1
41
1
10
-225.00024797058097
20
-58.622008420562764
30
0
10
-227.56586927490224
20
-58.755738048553496
30
0
10
-229.47641544799797
20
-52.232530694580106
30
0
10
-229.66587830200186
20
-45.136939237594632
30
0
0
SPLINE
5
417
100
AcDbEntity
8
0
100
AcDbSpline
70
4
71
3
72
8
73
4
74
0
42
0.000000001
43
0.0000000001
44
0.0000000001
40
0
40
0
40
0
40
0
40
1
40
1
40
1
40
1
41
1
41
1
41
1
41
1
10
-229.66587830200186
20
-45.136939237594632
30
0
10
-229.8399827911376
20
-38.616200192260763
30
0
10
-228.56054925842275
20
-31.612065216827414
30
0
10
-225.00024797058097
20
-28.84679592437746
30
0
0
SPLINE
5
418
100
AcDbEntity
8
0
100
AcDbSpline
70
4
71
3
72
8
73
4
74
0
42
0.000000001
43
0.0000000001
44
0.0000000001
40
-1
40
-1
40
-1
40
-1
40
0
40
0
40
0
40
0
41
1
41
1
41
1
41
1
10
-105.12726372070297
20
-68.068123410034218
30
0
10
-81.100543075561404
20
-49.497811426925686
30
0
10
-63.918318603515516
20
-51.736836241912876
30
0
10
-55.787419555663931
20
-59.76504504623415
30
0
0
SPLINE
5
419
100
AcDbEntity
8
0
100
AcDbSpline
70
4
71
3
72
8
73
4
74
0
42
0.000000001
43
0.0000000001
44
0.0000000001
40
-1
40
-1
40
-1
40
-1
40
0
40
0
40
0
40
0
41
1
41
1
41
1
41
1
10
-55.787419555663931
20
-59.76504504623415
30
0
10
-76.907666445922729
20
-61.082164650726355
30
0
10
-77.274245233154133
20
-77.432068996429479
30
0
10
-66.899218048095577
20
-86.959643548584026
30
0
0
SPLINE
5
420
100
AcDbEntity
8
0
100
AcDbSpline
70
4
71
3
72
8
73
4
74
0
42
0.000000001
43
0.0000000001
44
0.0000000001
40
-1
40
-1
40
-1
40
-1
40
0
40
0
40
0
40
0
41
1
41
1
41
1
41
1
10
-66.899218048095577
20
-86.959643548584026
30
0
10
-54.806979400634646
20
-67.964357650756867
30
0
10
-39.16898043823231
20
-88.581800929260282
30
0
10
-55.325808197021331
20
-98.253892532348672
30
0
0
SPLINE
5
421
100
AcDbEntity
8
0
100
AcDbSpline
70
4
71
3
72
8
73
4
74
0
42
0.000000001
43
0.0000000001
44
0.0000000001
40
-1
40
-1
40
-1
40
-1
40
0
40
0
40
0
40
0
41
1
41
1
41
1
41
1
10
-55.325808197021331
20
-98.253892532348672
30
0
10
-67.162074096679589
20
-105.33955160140994
30
0
10
-79.689552456664927
20
-97.939605320739787
30
0
10
-89.90372550659167
20
-96.578841287231484
30
0
0
SPLINE
5
422
100
AcDbEntity
8
0
100
AcDbSpline
70
4
71
3
72
8
73
4
74
0
42
0.000000001
43
0.0000000001
44
0.0000000001
40
-1
40
-1
40
-1
40
-1
40
0
40
0
40
0
40
0
41
1
41
1
41
1
41
1
10
-89.90372550659167
20
-96.578841287231484
30
0
10
-99.365123574828971
20
-93.736059574890177
30
0
10
-113.40421780700673
20
-91.60161253356938
30
0
10
-134.50142714996326
20
-105.34916671218878
30
0
0
SPLINE
5
423
100
AcDbEntity
8
0
100
AcDbSpline
70
4
71
3
72
8
73
4
74
0
42
0.000000001
43
0.0000000001
44
0.0000000001
40
-1
40
-1
40
-1
40
-1
40
0
40
0
40
0
40
0
41
1
41
1
41
1
41
1
10
-134.50142714996326
20
-105.34916671218878
30
0
10
-128.79149253845208
20
-90.965229866027869
30
0
10
-119.85399970092764
20
-78.948029952240034
30
0
10
-105.12726372070297
20
-68.068123410034218
30
0
0
SPLINE
5
424
100
AcDbEntity
8
0
100
AcDbSpline
70
4
71
3
72
8
73
4
74
0
42
0.000000001
43
0.0000000001
44
0.0000000001
40
0
40
0
40
0
40
0
40
1
40
1
40
1
40
1
41
1
41
1
41
1
41
1
10
-36.016600762939319
20
-437.18895664062518
30
0
10
-26.031125381469593
20
-437.18895664062518
30
0
10
-0.87803860473620432
20
-411.84937543334973
30
0
10
-34.084974481201016
20
-387.0993489379884
30
0
0
SPLINE
5
425
100
AcDbEntity
8
0
100
AcDbSpline
70
4
71
3
72
8
73
4
74
0
42
0.000000001
43
0.0000000001
44
0.0000000001
40
0
40
0
40
0
40
0
40
1
40
1
40
1
40
1
41
1
41
1
41
1
41
1
10
-34.084974481201016
20
-387.0993489379884
30
0
10
-27.536933468627751
20
-383.03734106445324
30
0
10
-23.655052972411994
20
-375.21227567443862
30
0
10
-18.254716323852378
20
-365.57823581848152
30
0
0
SPLINE
5
426
100
AcDbEntity
8
0
100
AcDbSpline
70
4
71
3
72
8
73
4
74
0
42
0.000000001
43
0.0000000001
44
0.0000000001
40
0
40
0
40
0
40
0
40
1
40
1
40
1
40
1
41
1
41
1
41
1
41
1
10
-18.254716323852378
20
-365.57823581848152
30
0
10
-16.391406802367996
20
-362.25416080932627
30
0
10
-15.171384759521302
20
-361.81380164184583
30
0
10
-12.969416839599432
20
-361.75365880126969
30
0
0
LINE
5
427
100
AcDbEntity
8
0
100
AcDbLine
10
-12.969416839599432
20
-361.75365880126969
30
0
11
-12.969416839599432
21
-437.18895664062518
31
0
0
LINE
5
428
100
AcDbEntity
8
0
100
AcDbLine
10
-12.969416839599432
20
-437.18895664062518
30
0
11
-36.016600762939319
21
-437.18895664062518
31
0
0
SPLINE
5
429
100
AcDbEntity
8
0
100
AcDbSpline
70
4
71
3
72
8
73
4
74
0
42
0.000000001
43
0.0000000001
44
0.0000000001
40
-1
40
-1
40
-1
40
-1
40
0
40
0
40
0
40
0
41
1
41
1
41
1
41
1
10
-33.835798992919806
20
-265.18378820190441
30
0
10
-40.274051358032068
20
-244.70792581634529
30
0
10
-24.07514942321761
20
-241.35257480926523
30
0
10
-19.85981602478013
20
-241.21381176757822
30
0
0
SPLINE
5
430
100
AcDbEntity
8
0
100
AcDbSpline
70
4
71
3
72
8
73
4
74
0
42
0.000000001
43
0.0000000001
44
0.0000000001
40
-1
40
-1
40
-1
40
-1
40
-0.00026584662154492613
40
-0.00026584662154492613
40
-0.00026584662154492613
40
-0.00026584662154492613
41
1
41
1
41
1
41
1
10
-19.85981602478013
20
-241.21381176757822
30
0
10
-21.265141405849334
20
-232.74422643729355
30
0
10
-24.031646848173345
20
-229.42818052709785
30
0
10
-28.893452867075101
20
-225.15469461441046
30
0
0
SPLINE
5
431
100
AcDbEntity
8
0
100
AcDbSpline
70
4
71
3
72
8
73
4
74
0
42
0.000000001
43
0.0000000001
44
0.0000000001
40
0.00026584662154554596
40
0.00026584662154554596
40
0.00026584662154554596
40
0.00026584662154554596
40
1
40
1
40
1
40
1
41
1
41
1
41
1
41
1
10
-28.893452867075098
20
-225.15469461441046
30
0
10
-24.031646848173345
20
-220.8812087017231
30
0
10
-21.265141405849327
20
-217.56516279152743
30
0
10
-19.85981602478013
20
-209.09557746124275
30
0
0
SPLINE
5
432
100
AcDbEntity
8
0
100
AcDbSpline
70
4
71
3
72
8
73
4
74
0
42
0.000000001
43
0.0000000001
44
0.0000000001
40
0
40
0
40
0
40
0
40
1
40
1
40
1
40
1
41
1
41
1
41
1
41
1
10
-19.85981602478013
20
-209.09557746124275
30
0
10
-24.07514942321761
20
-208.95681441955574
30
0
10
-40.274051358032068
20
-205.60146341247565
30
0
10
-33.835798992919806
20
-185.12560102691657
30
0
0
SPLINE
5
433
100
AcDbEntity
8
0
100
AcDbSpline
70
4
71
3
72
8
73
4
74
0
42
0.000000001
43
0.0000000001
44
0.0000000001
40
0
40
0
40
0
40
0
40
1
40
1
40
1
40
1
41
1
41
1
41
1
41
1
10
-33.835798992919806
20
-185.12560102691657
30
0
10
-30.62542750854476
20
-172.1824143203736
30
0
10
-17.101462298583812
20
-153.23767766265874
30
0
10
-12.969459860229335
20
-143.8487908660889
30
0
0
LINE
5
434
100
AcDbEntity
8
0
100
AcDbLine
10
-12.969459860229337
20
-143.8487908660889
30
0
11
-12.969459860229337
21
-306.46059836273201
31
0
0
SPLINE
5
435
100
AcDbEntity
8
0
100
AcDbSpline
70
4
71
3
72
8
73
4
74
0
42
0.000000001
43
0.0000000001
44
0.0000000001
40
-1
40
-1
40
-1
40
-1
40
0
40
0
40
0
40
0
41
1
41
1
41
1
41
1
10
-12.969459860229335
20
-306.46059836273201
30
0
10
-17.101462298583812
20
-297.07171156616221
30
0
10
-30.62542750854476
20
-278.12697490844732
30
0
10
-33.835798992919806
20
-265.18378820190441
30
0
0
LINE
5
436
100
AcDbEntity
8
0
100
AcDbLine
10
-284.88832037658688
20
-437.18891361999522
30
0
11
-320.39962402725212
21
-437.18891361999522
31
0
0
SPLINE
5
437
100
AcDbEntity
8
0
100
AcDbSpline
70
4
71
3
72
8
73
4
74
0
42
0.000000001
43
0.0000000001
44
0.0000000001
40
-1
40
-1
40
-1
40
-1
40
0
40
0
40
0
40
0
41
1
41
1
41
1
41
1
10
-320.39962402725212
20
-437.18891361999522
30
0
10
-310.10304496078487
20
-432.60984079589861
30
0
10
-315.55745854110711
20
-416.0084378479005
30
0
10
-318.53060351715084
20
-411.21387468872086
30
0
0
SPLINE
5
438
100
AcDbEntity
8
0
100
AcDbSpline
70
4
71
3
72
8
73
4
74
0
42
0.000000001
43
0.0000000001
44
0.0000000001
40
-1
40
-1
40
-1
40
-1
40
0
40
0
40
0
40
0
41
1
41
1
41
1
41
1
10
-318.53060351715084
20
-411.21387468872086
30
0
10
-324.3878730308532
20
-425.15823749389659
30
0
10
-337.8193761520385
20
-422.52184725341812
30
0
10
-340.97012104339598
20
-414.44515419921885
30
0
0
SPLINE
5
439
100
AcDbEntity
8
0
100
AcDbSpline
70
4
71
3
72
8
73
4
74
0
42
0.000000001
43
0.0000000001
44
0.0000000001
40
-1
40
-1
40
-1
40
-1
40
0
40
0
40
0
40
0
41
1
41
1
41
1
41
1
10
-340.97012104339598
20
-414.44515419921885
30
0
10
-342.36781828765862
20
-410.86226708068864
30
0
10
-339.6588845100402
20
-404.93380917968761
30
0
10
-333.74779618835447
20
-402.31553062438979
30
0
0
SPLINE
5
440
100
AcDbEntity
8
0
100
AcDbSpline
70
4
71
3
72
8
73
4
74
0
42
0.000000001
43
0.0000000001
44
0.0000000001
40
-1
40
-1
40
-1
40
-1
40
0
40
0
40
0
40
0
41
1
41
1
41
1
41
1
10
-333.74779618835447
20
-402.31553062438979
30
0
10
-324.22508296737658
20
-399.02952887268077
30
0
10
-314.09067016525262
20
-399.20509606323259
30
0
10
-306.07666892395014
20
-411.06657205200207
30
0
0
SPLINE
5
441
100
AcDbEntity
8
0
100
AcDbSpline
70
4
71
3
72
8
73
4
74
0
42
0.000000001
43
0.0000000001
44
0.0000000001
40
-1
40
-1
40
-1
40
-1
40
0
40
0
40
0
40
0
41
1
41
1
41
1
41
1
10
-306.07666892395014
20
-411.06657205200207
30
0
10
-299.75259331054679
20
-420.10443201904309
30
0
10
-296.25699505004877
20
-426.68912660827652
30
0
10
-284.88832037658688
20
-437.18891361999522
30
0
0
LINE
5
442
100
AcDbEntity
8
0
100
AcDbLine
10
-165.1121755645751
20
-13.120448720932023
30
0
11
-129.60088266906723
21
-13.120448720932023
31
0
0
SPLINE
5
443
100
AcDbEntity
8
0
100
AcDbSpline
70
4
71
3
72
8
73
4
74
0
42
0.000000001
43
0.0000000001
44
0.0000000001
40
-1
40
-1
40
-1
40
-1
40
0
40
0
40
0
40
0
41
1
41
1
41
1
41
1
10
-129.60088266906723
20
-13.120448720932023
30
0
10
-139.89744022521961
20
-17.699505412292496
30
0
10
-134.44300513458239
20
-34.300913737869287
30
0
10
-131.46987091369618
20
-39.095460764312769
30
0
0
SPLINE
5
444
100
AcDbEntity
8
0
100
AcDbSpline
70
4
71
3
72
8
73
4
74
0
42
0.000000001
43
0.0000000001
44
0.0000000001
40
-1
40
-1
40
-1
40
-1
40
0
40
0
40
0
40
0
41
1
41
1
41
1
41
1
10
-131.46987091369618
20
-39.095460764312769
30
0
10
-125.61261215515124
20
-25.151108714294452
30
0
10
-112.18109827880845
20
-27.787488199615495
30
0
10
-109.03035338745106
20
-35.864186631393451
30
0
0
SPLINE
5
445
100
AcDbEntity
8
0
100
AcDbSpline
70
4
71
3
72
8
73
4
74
0
42
0.000000001
43
0.0000000001
44
0.0000000001
40
-1
40
-1
40
-1
40
-1
40
0
40
0
40
0
40
0
41
1
41
1
41
1
41
1
10
-109.03035338745106
20
-35.864186631393451
30
0
10
-107.63269916381823
20
-39.447073749923725
30
0
10
-110.3416221862792
20
-45.375494007873556
30
0
10
-116.25269975280752
20
-47.993794073486349
30
0
0
SPLINE
5
446
100
AcDbEntity
8
0
100
AcDbSpline
70
4
71
3
72
8
73
4
74
0
42
0.000000001
43
0.0000000001
44
0.0000000001
40
-1
40
-1
40
-1
40
-1
40
0
40
0
40
0
40
0
41
1
41
1
41
1
41
1
10
-116.25269975280752
20
-47.993794073486349
30
0
10
-125.77540221862783
20
-51.279806580352805
30
0
10
-135.90983653106676
20
-51.104228634643576
30
0
10
-143.92382701721181
20
-39.242763401031517
30
0
0
SPLINE
5
447
100
AcDbEntity
8
0
100
AcDbSpline
70
4
71
3
72
8
73
4
74
0
42
0.000000001
43
0.0000000001
44
0.0000000001
40
-1
40
-1
40
-1
40
-1
40
0
40
0
40
0
40
0
41
1
41
1
41
1
41
1
10
-143.92382701721181
20
-39.242763401031517
30
0
10
-150.2479026306151
20
-30.204935699462911
30
0
10
-153.74350089111317
20
-23.620224977493301
30
0
10
-165.1121755645751
20
-13.120448720932023
30
0
0
LWPOLYLINE
5
448
100
AcDbEntity
8
0
100
AcDbPolyline
90
20
70
1
43
0.0
10
-267.5
20
-447.5
10
-267.5
20
-450
10
-455
20
-450
10
-455
20
-265
10
-452.5
20
-265
10
-452.5
20
-185
10
-455
20
-185
10
-455
20
0
10
-267.4999999999585
20
9.2370555648813024e-13
10
-267.49999999995856
20
-2.4999999999990763
10
-187.49999999995853
20
-2.4999999999990763
10
-187.4999999999585
20
9.2370555648813024e-13
10
0
20
0
10
0
20
-185
10
-2.5
20
-185
10
-2.5
20
-265
10
0
20
-265
10
0
20
-450
10
-187.5
20
-450
10
-187.5
20
-447.5
0
ENDSEC
0
SECTION
2
OBJECTS
0
DICTIONARY
5
C
100
AcDbDictionary
3
ACAD_GROUP
350
D
3
ACAD_MLINESTYLE
350
17
0
DICTIONARY
5
D
100
AcDbDictionary
0
DICTIONARY
5
1A
330
C
100
AcDbDictionary
0
DICTIONARY
5
17
100
AcDbDictionary
0
ENDSEC
0
EOF
